Screeching Weasel - Stupid Over You Chords & Tabs

 

Stupid Over You Chords & Tabs

Screeching Weasel Chords & Tabs

Version: 1 Type: Tab 0 ratings
1 star 2 stars 3 stars 4 stars 5 stars
comments

Stupid Over You Tab


intro

e----------------
B----------------
G----------------
D--9-9-9-9-9-7---
A-------------9-7
E----------------
play a few times (listen to album)

verse
e-----------
B-----------
G-9---------
D-9--11--9--(x2)
A-7--11--9--
E----9---7--

pre-chorus
e-------
B-------
G-------
D-7--9--
A-7--9--
E-5--7--

chorus
e-------------
B-------------
G-9-----------(x4)
D-9--7--11--9-
A-7--7--11--9-
E----5--9---7-
[ Tab from: http://www.guitartabs.cc/tabs/s/screeching_weasel/stupid_over_you_tab.html ]
solo
(part 1)
e------------------------------------
B--------10-10-9-10-9-9-9-9-9-7-7-7-7
G-9-9-9-9----------------------------
D------------------------------------(x2)
A------------------------------------
E------------------------------------

(part 2)
e------------------
B-9-9-9-9-9-10-10--
G-----------------9
D------------------(x2)
A------------------
E------------------

(part 3)
e---------------------
B-----10-10-9-9-7-7-9-
G-9-9----------------9
D---------------------
A---------------------
E---------------------

SONG ORDER

intro
verse
pre-chorus
verse
pre-chorus
chorus
solo
chorus
intro
chorus
Comments