Screeching Weasel - Punkhouse Chords & Tabs

 

Punkhouse Chords & Tabs

Screeching Weasel Chords & Tabs

Version: 1 Type: Tab 0 ratings
1 star 2 stars 3 stars 4 stars 5 stars
comments

Punkhouse Tab

   
Screeching Weasel - Punkhouse
Submitted By: Chris
EMail: cwsmith@together.net
Album:Kill the Musicians (Look Out! Records)
Track:2
Guitar:Ben Weasel

Note:It's only been taking me a few minutes to tab each
song so you can imagine how easy they are.

Intro/Bridge:

e------------------------------------------------------|
b------------------------------------------------------|
g---12-12-12-12-12-12-9-12-12-12-12-12-9-12-12-12-12---|
D------------------------------------------------------|
A------------------------------------------------------|
E------------------------------------------------------|

e-------------------------------|
b-------------------------------|
g---12-12-12-12-12-12-7-7-7-7---|
D-------------------------------|(x2)
A-------------------------------|
E-------------------------------|

       G5       D5
e-----------------------|
b-----------------------|
g------------7-77-7-7---|
D---5-55-5-5-7-77-7-7---|
A---5-55-5-5-5-55-5-5---|
E---3-33-3-3------------|
[ Tab from: http://www.guitartabs.cc/tabs/s/screeching_weasel/punkhouse_tab.html ]
       G5       C5       D5       G5
e-----------------------------------------|
b-----------------------------------------|
g------------5-55-5-5-7-77-7-7-5-55-5-5---|
D---5-55-5-5-5-55-5-5-7-77-7-7-5-55-5-5---|(x2)
A---5-55-5-5-3-33-3-3-5-55-5-5-3-33-3-3---|
E---3-33-3-3------------------------------|

Chorus:
       G5       D5      C5        D5
e-----------------------------------------|
b-----------------------------------------|
g------------7-77-7-7-5-55-5-5-7-77-7-7---|
D---5-55-5-5-7-77-7-7-5-55-5-5-7-77-7-7---|(x2)
A---5-55-5-5-5-55-5-5-3-33-3-3-5-55-5-5---|
E---3-33-3-3------------------------------|

       C5
e--------------|
b--------------|
g---5-55-5-5---|
D---5-55-5-5---|
A---3-33-3-3---|
E--------------|

Verse x2

Chorus x2

Interlude:
       C5       G5       C5       D5
e-----------------------------------------|
b-----------------------------------------|
g---5-55-5-5----------5-55-5-5-7-77-7-7---|
D---5-55-5-5-5-55-5-5-5-55-5-5-7-77-7-7---|(x2)
A---3-33-3-3-5-55-5-5-3-33-3-3-5-55-5-5---|
E------------3-33-3-3---------------------|

Bridge x1

Verse x2

Chorus x2

Verse Chords x1

Verse x1

Verse Chords x1

Fill:

e------------------|
b------------------|
g---77-5-7-9-7-5---|
D------------------|(x4)
A------------------|
E------------------|

Verse x1

Fill x1

Verse x1

Fill x1 (w/ slight variation)

Verse x1

Fill x1 (w/ slight variation)

End on a G5

Really easy song to tab and to play!
Comments