Screeching Weasel - Outside Of You Chords & Tabs

 

Outside Of You Chords & Tabs

Screeching Weasel Chords & Tabs

Version: 1 Type: Tab 0 ratings
1 star 2 stars 3 stars 4 stars 5 stars
comments

Outside Of You Tab

   
-------------------------------------------------------------------------------
                   OUTSIDE OF YOU - Screeching Weasel
-------------------------------------------------------------------------------

By: Alex (AlexMaedge@online.de)

Verse:
    A	     F#	  A    D                   E                A
e||------------------------------------|------------------------------|
B||------------------------------------|------------------------------|
G||--------------------7-7-7-7-7-7-7-7-|---9-9-9-9-9-9-9-9--7---------|
D||-7-7-7-7--4-4--7-7--7-7-7-7-7-7-7-7-|x4-9-9-9-9-9-9-9-9--7---------|
A||-7-7-7-7--4-4--7-7--5-5-5-5-5-5-5-5-|---7-7-7-7-7-7-7-7--5---------|
E||-5-5-5-5--2-2--5-5------------------|------------------------------|

Refrain:
    A        D        A        D        A        E        A
e||-----------------------------------------------------------------------|---|
B||-----------------------------------------------------------------------|---|
G||----------7-7-7-7-----------7-7-7-7--------------------7-7-7-7-7-7-7-7-|---|
D||-7-7-7-7--7-7-7-7--7-7-7-7--7-7-7-7--7-7-7-7--2-2-2-2--7-7-7-7-7-7-7-7-|x2-|
A||-7-7-7-7--5-5-5-5--7-7-7-7--5-5-5-5--7-7-7-7--2-2-2-2- 5-5-5-5-5-5-5-5-|---|
E||-5-5-5-5-----------5-5-5-5-----------5-5-5-5--0-0-0-0------------------|---|

Verse
Refrain
[ Tab from: http://www.guitartabs.cc/tabs/s/screeching_weasel/outside_of_you_tab.html ]
Solo(Rhythem guitar):
   A                F#       D                     
e|-----------------------------------|---------------------------------|
B|-----------------------------------|---------------------------------|
G|---------------------------7-7-7-7-|---------------------------------|
D|-7-7-7-7-7-7-7-7--4-4-4-4--7-7-7-7-|x2-------------------------------|
A|-7-7-7-7-7-7-7-7--4-4-4-4--5-5-5-5-|---------------------------------|
E|-5-5-5-5-5-5-5-5--2-2-2-2----------|---------------------------------|

   A        E        D                   A        E        D        E
e|-----------------------------------|---------------------------------------|
B|-----------------------------------|---------------------------------------|
G|-------------------7-7-7-7-7-7-7-7-|---------------------7-7-7-7--9-9-9-9--|
D|-7-7-7-7--2-2-2-2--7-7-7-7-7-7-7-7-|x5-7-7-7-7--2-2-2-2--7-7-7-7--9-9-9-9--|
A|-7-7-7-7--2-2-2-2--5-5-5-5-5-5-5-5-|---7-7-7-7--2-2-2-2--5-5-5-5--7-7-7-7--|
E|-5-5-5-5--0-0-0-0------------------|---5-5-5-5--0-0-0-0--------------------|

Solo
e|----------------|--------------------------|-------------------|---------|
B|----------------|--------------------------|-------------------|---------|
G|-----6--7-6-----|--------6--7-6------9-----|--------6--7-6-----|---------|
D|-7-9--------9-7-|x8--7-9--------9-7--------|x3--7-9--------9-7-|x2--7----|
A|----------------|--------------------------|-------------------|---------|
E|----------------|--------------------------|-------------------|---------|

Verse (1/2)
Refrain

End
   A        D           A
e|------------------|--------------------------------------------------|
B|------------------|--------------------------------------------------|
G|----------7-7-7-7-|--------------------------------------------------|
D|-7-7-7-7--7-7-7-7-|x8-7----------------------------------------------|
A|-7-7-7-7--5-5-5-5-|---7----------------------------------------------|
E|-5-5-5-5----------|---5----------------------------------------------|
Comments