Screeching Weasel - Omw Chords & Tabs

 

Omw Chords & Tabs

Screeching Weasel Chords & Tabs

Version: 1 Type: Bass Tab 0 ratings
1 star 2 stars 3 stars 4 stars 5 stars
comments

Omw Bass Tab

Intro                                                             Verse 1,2
  Half-time feel                                                  Double-time feel
| |---------------|--------------|--------------|---------------||------------------|
|4|.--------------|--------------|--4--4--4--4--|--------------.||.-----------------|
|4|.--4--4--4--4--|--------------|--------------|--4--4--4--4--.||.--4--4-4-4-4-4-4-|
| |---------------|--4--4--4--4--|--------------|---------------||------------------|
[ Tab from: http://www.guitartabs.cc/tabs/s/screeching_weasel/omw_btab.html ]
                                   _________________  Interlude_____________________
                                  |1.                |2.
|----------------|----------------|-----------------||---------------|--------------|
|----------------|-4--4-4-4-4-4-4-|----------------.||.--------------|--------------|
|----------------|----------------|-4--4-4-4-4-4-4-.||.--4--4--4--4--|--------------|
|-4--4-4-4-4-4-4-|----------------|-----------------||---------------|--4--4--4--4--|

                          x4  End
|--------------|---------------||-------||
|--4--4--4--4--|--------------.||-------||
|--------------|--4--4--4--4--.||-4-----||
|--------------|---------------||-------||
Comments