Screeching Weasel - My Right Chords & Tabs

 

My Right Chords & Tabs

Screeching Weasel Chords & Tabs

Version: 3 Type: Bass Tab

My Right Bass Tab

   
-------------------------------------------------------------------------------
			     My Right - Screeching Weasel
-------------------------------------------------------------------------------

Tabbed By :josh 
e-mail:scrubster2002@yahoo.com 

Tuning:Standard EADG

Intro
G|-----------------------------------------------|
D|-----------------------------------------------|
A|-2-22222222------------------------------------|
E|------------5-55555555-0-00000000-333333333333-|x1

G|------------------------------------------------|
D|------------------------------------------------|
A|-0h2-22222222-----------------------------------|
E|--------------5-55555555-0-00000000-33333333333-|x2

Verse 1
G|---------------------|
D|---------------------|
A|-2222----------------|
E|------2222-3333-0000-|x4

G|---------------------|
D|------------------2--|
A|-2222------------2-2-|
E|------2222-3333-0----|x2
[ Tab from: http://www.guitartabs.cc/tabs/s/screeching_weasel/my_right_btab_ver_3.html ]
Chorus
G|-----------------------------------------------------|
D|-----------------------------------------------------|
A|-----------------------------------------------------|
E|-777777777777-555555555555-000000000000-333333333333-|x2

Verse 2
G|---------------------|
D|---------------------|
A|-2222----------------|
E|------2222-3333-0000-|x6

Interlude
G|----------4--------------------------------------|
D|--------2---2-----------7------------2-----------|
A|-0h2-222------2-------5---5---------2-2----------|
E|----------------5-555-------5-0-000-----33333333-|x2

Verse 3
G|---------------------|
D|---------------------|
A|-2222----------------|
E|------2222-3333-0000-|x3

G|---------------------|
D|------------------2--|
A|-2222------------2-2-|
E|------2222-3333-0----|

G|---------------------|
D|---------------------|
A|-2222----------------|
E|------2222-3333-0000-|

G|---------------------|
D|------------------2--|
A|-2222------------2-2-|
E|------2222-3333-0----|

Outro
G|-----|
D|-----|
A|-2-2-|
E|-----|

Here's the order of the song.
Intro
Verse 1
Chorus
Verse 2
Chorus
Interlude
Verse 3
Chorusx2

well thats it email me if u got any questions.