Screeching Weasel - Love Chords & Tabs

 

Love Chords & Tabs

Screeching Weasel Chords & Tabs

Version: 1 Type: Tab 0 ratings
1 star 2 stars 3 stars 4 stars 5 stars
comments

Love Tab

Tabbed By Matt Shepard
song: love

Riff 1: moves up to 5th fret on last verse 
|---------------------------------------------------------------------| 
|---------------------------------------------------------------------| 
|-----------------------------------5---5---5---5---7---7---7---7-----| 
|---5---5---5---5---5---5---5---5---5---5---5---5---7---7---7---7-----| 
|---5---5---5---5---5---5---5---5---3---3---3---3---5---5---5---5-----| 
|---3---3---3---3---3---3---3---3-------------------------------------| 
[ Tab from: http://www.guitartabs.cc/tabs/s/screeching_weasel/love_tab.html ]
Riff 2: moves up to 7th fret on last verse  
                                                                     ^This 
chord is hit several times 
very fast to end this riff    
|------------------------------------------------------------| 
|------------------------------------------------------------| 
|---------------------5--5--5--5--5--5--7--7--7--7--7--7--7--| 
|--7--7--7--7--7--7---5--5--5--5--5--5--7--7--7--7--7--7--7--| 
|--7--7--7--7--7--7---3--3--3--3--3--3--5--5--5--5--5--5--5--| 
|--5--5--5--5--5--5------------------------------------------| 
                                                                               
Riff 3: Moves up to the 5th fret on last chorus 
|-----------------------------------------------------------| 
|-----------------------------------------------------------| 
|---------------7---5---7---4---4---4---4---5---5---5---5---| 
|---5---5---5---7---5---7---4---4---4---4---5---5---5---5---| 
|---5---5---5---5---3---5---2---2---2---2---3---3---3---3---| 
|---3---3---3-----------------------------------------------| 
  
Riff 4:                                  
|----------------------------------------------------| 
|----------------------------------------------------| 
|---5---5---5---7---7---7-----------4---4---4---4----| 
|---5---5---5---7---7---7---5---5---4---4---4---4----| 
|---3---3---3---5---5---5---5---5---2---2---2---2----| 
|---------------------------3---3--------------------| 

Riff 5: 
|-----------------------------------------------------------| 
|-----------------------------------------------------------| 
|---5---5---5---5---5---5---5---7---7---7---7---7---7---7---| 
|---5---5---5---5---5---5---5---7---7---7---7---7---7---7---| 
|---3---3---3---3---3---3---3---5---5---5---5---5---5---5---| 
|-----------------------------------------------------------| 

Outro 
|-------------------| 
|-------------------| 
|---7---6-----------| 
|---7---6---9---3---| 
|---5---4---9---3---| 
|-----------7---5---|
Comments