Screeching Weasel - Kamalas Too Nice Chords & Tabs

 

Kamalas Too Nice Chords & Tabs

Screeching Weasel Chords & Tabs

Version: 1 Type: Tab 0 ratings
1 star 2 stars 3 stars 4 stars 5 stars
comments

Kamalas Too Nice Tab

   
Screeching Weasel - Kamala's Too Nice
Submitted By: Chris
EMail: cwsmith@together.net
Album:Kill the Musicians (Look Out! Records)
Track:1
Guitar:Ben Weasel

Intro:
      Db5 Gb5 Ab5 Db5
e---------------------|
b---------------------|
g---6~---6~-------6---|
D---6~---6~---4-6-6---|
A---4~---4~---4-6-4---|
E-------------2-4-----|
[ Tab from: http://www.guitartabs.cc/tabs/s/screeching_weasel/kamalas_too_nice_tab.html ]
Verse:
          Db5         Gb5     Ab5         Db5
e-----------------------------------------------------|
b-----------------------------------------------------|
g---6-6-6-6-6-6-6-6-----------------6-6-6-6-6-6-6-6---|
D---6-6-6-6-6-6-6-6-4-4-4-4-6-6-6-6-6-6-6-6-6-6-6-6---|
A---4-4-4-4-4-4-4-4-4-4-4-4-6-6-6-6-4-4-4-4-4-4-4-4---|
E-------------------2-2-2-2-4-4-4-4-------------------|

Chorus:
      Db5     Gb5          Db5
e-------------------------------------|
b-------------------------------------|
g---6-6-6-6---------6-6-6-6-6-6-6-6---|
D---6-6-6-6-4-4-4-4-6-6-6-6-6-6-6-6---|(x4)
A---4-4-4-4-4-4-4-4-4-4-4-4-4-4-4-4---|
E-----------2-2-2-2-------------------|

Verse x2

Chorus x4

Interlude:
       Db5         Gb5         Db5
e--------------------------------------|
b--------------------------------------|
g---6-6-6-6------------------6-6-6-6---|
D---6-6-6-6-4-4-4-4--4-4-4-4-6-6-6-6---|(x2)
A---4-4-4-4-4-4-4-4--4-4-4-4-4-4-4-4---|
E-----------2-2-2-2--2-2-2-2-----------|

No guitar for third verse...

Chorus x4

End On:
   Db5
e-------|
b-------|
g---6---|
D---6---|
A---4---|
E-------|
Comments