Screeching Weasel - I Need Therapy Chords & Tabs

 

I Need Therapy Chords & Tabs

Screeching Weasel Chords & Tabs

Version: 1 Type: Tab 0 ratings
1 star 2 stars 3 stars 4 stars 5 stars
comments

I Need Therapy Tab

   
Screeching Weasel - I Need Therapy
Submitted By: Chris
EMail: cwsmith@together.net
Album:Kill the Musicians
Track:5
Guitar I:Ben Weasel
Guitar II:Jughead

Legend:
[]-harmonic

Gtr. I & II
Chorus:
       Db5            Eb5
e-----------------------------------|
b-----------------------------------|
g---6666-6666-1111-1111-1111-1111---|
D---6666-6666-1111-1111-1111-1111---|
A---4444-4444-1111-1111-1111-1111---|
E-----------------------------------|

Chorus x2

Verse:
    Db5  Ab5  Db5  Ab5  Db5  Ab5    Gb5       B5
e-----------------------------------------------------|
b-----------------------------------------------------|
g---6666------6666------6666---------------44444444---|
D---6666-6666-6666-6666-6666-6666-44444444-44444444---|
A---4444-6666-4444-6666-4444-6666-44444444-22222222---|
E--------4444------4444------4444-22222222------------|

Verse x1
[ Tab from: http://www.guitartabs.cc/tabs/s/screeching_weasel/i_need_therapy_tab.html ]
Bridge:
       Db5
e---------------|
b---------------|
g---6666-6666---|
D---6666-6666---|
A---4444-4444---|
E---------------|

Bridge x1

Chorus x2

Verse x1

Interlude:
      Eb5    Gb5   B5
e------------------------|
b------------------------|
g-----------------4444---|
D---88888888-4444-4444---|
A---88888888-4444-2222---|
E---66666666-2222--------|

Interlude x4

(continued)

      Eb5   G5 Gb5
e------------------|
b------------------|
g------------------|
D---88888888-5-4---|
A---88888888-5-4---|
E---66666666-3-2---|

Interlude x1 (in all)

Drum fill...

Fill:
                Db5
e-----------------------------------|
b-----------------------------------|
g---66----66----66----66-66-66-66---|
D---66----66----66----66-66-66-66---|
A---44----44----44----44-44-44-44---|
E-----------------------------------|

Fill x1

Chorus x2

Verse x1

End On:
   Db5
e-------|
b-------|
g---6---|
D---6---|
A---4---|
E-------|

Gtr. I

e----------|
b----------|
g----------|
D----------|
A----------|
E---[12]---|
Comments