Screeching Weasel - I Hate Led Zeppelin Chords & Tabs

 

I Hate Led Zeppelin Chords & Tabs

Screeching Weasel Chords & Tabs

Version: 3 Type: Bass Tab 0 ratings
1 star 2 stars 3 stars 4 stars 5 stars
comments

I Hate Led Zeppelin Bass Tab

Intro                                                               ______________
                                                                |1.
| |----------||------------------|----------------|----------------|--------------||
|4|.--------.||.-----------------|----------------|----------------|-------------.||
|4|.--rest--.||.-----------------|----------------|----------------|-------------.||
| |----------||---7--7-7-7-7-7-7-|-5--5-5-5-5-5-5-|-8--8-8-8-8-8-8-|-6--6--6--6---||
[ Tab from: http://www.guitartabs.cc/tabs/s/screeching_weasel/i_hate_led_zeppelin_btab_ver_3.html ]
 _______________________________________________________  Verse 1,2             ______________
|2.                                                                            |1.2.3.4.5.
|--------------|-------------|-------------|------------||-----------|---------|--------------||
|--------------|-------------|-------------|------------||.----------|---------|-------------.||
|--------------|-------------|-------------|------------||.--5-6-5-6-|-5-6-5-6-|-------------.||
|--6--6--6--6--|-6--6--6--6--|-7--7--7--7--|-7--7--7--7-||-----------|---------|-7--7--7--7---||

  Chorus    
                                           
||------------------|----------------|----------------|--------------||---------|---------|
||.-----------------|----------------|----------------|-------------.||---------|---------|
||.-----------------|----------------|----------------|-------------.||---------|---------|
||---7--7-7-7-7-7-7-|-5--5-5-5-5-5-5-|-8--8-8-8-8-8-8-|-6--6--6--6---||-6-6-6-6-|-7-7-7-7-|


|---------||
|---------||
|---------||
|-7-7-7-7-||
Comments