Screeching Weasel - Hey Suburbia Chords & Tabs

 

Hey Suburbia Chords & Tabs

Screeching Weasel Chords & Tabs

Version: 3 Type: Tab 0 ratings
1 star 2 stars 3 stars 4 stars 5 stars
comments

Hey Suburbia Tab

HEY SUBURBIA - Screeching Weasel

By: Jon Meade (AusRotten086@aol.com)

Main Riff
e|------------------------------------------------------------------|
B|------0000754-------754-----754---2222--424240--------------------|
G|------------------------------------------------------------------| X2
D|--------------6666------------------------------------------------|       
A|-----------------------7777---------------------------------------|
E|------------------------------------------------------------------|

Verse 
e|-----------------------------------------------|
B|-----------------------------------------------|
G|-----------------------------------------------|
D|-9---9--9---9---9---9-----9---9-9--------------|
A|-9---9--9---9---9---9-----9---9-9--------------|
E|-7---7--7---7---7---7-----7---7-7--------------|
   Try to tell us our future's at stake

e|-----------------------------------------------|
B|-----------------------------------------------|
G|-----------------------------------------------|
D|-6----6-----6-----6---6------6--6----6--6------|
A|-6----6-----6-----6---6------6--6----6--6------|
E|-4----4-----4-----4---4------4--4----4--4------|
   Well we're gonna slam dance on your grave

e|-----------------------------------------------|
B|-----------------------------------------------|
G|-----------------------------------------------|
D|-2-------2--2-----2------9---9--9---4--4--4----|
A|-2-------2--2-----2------9---9--9---4--4--4----|
E|-0-------0--0-----0------7---7--7---2--2--2----|
   Because we don't give a shit about tomorrow
[ Tab from: http://www.guitartabs.cc/tabs/s/screeching_weasel/hey_suburbia_tab_ver_3.html ]
e|-----------------------------------------------|
B|-----------------------------------------------|
G|-----------------------------------------------|
D|-9---9--9---9---9---9-----9---9-9--------------|
A|-9---9--9---9---9---9-----9---9-9--------------|
E|-7---7--7---7---7---7-----7---7-7--------------|
  You say we're a bunch of lazy bums

e|-----------------------------------------------|
B|-----------------------------------------------|
G|-----------------------------------------------|
D|-6----6-----6-----6---6------6--6----6--6------|
A|-6----6-----6-----6---6------6--6----6--6------|
E|-4----4-----4-----4---4------4--4----4--4------|
   Who just wanna act stupid and have some fun

e|-----------------------------------------------|
B|-----------------------------------------------|
G|-----------------------------------------------|
D|-2-------2--2-----2------9---9--9---4--4--4----|
A|-2-------2--2-----2------9---9--9---4--4--4----|
E|-0-------0--0-----0------7---7--7---2--2--2----|
   Because we don't give a shit about tomorrow

Chorus
e|-------------------------------------------------------------------|
B|-------------------------------------------------------------------|
G|-------------------------------------------------------------------|
D|-9--9-9--9-9---6--6-6--6-6----2--2-2--2-2---2----2---2----2----2---| x2
A|-9--9-9--9-9---6--6-6--6-6----2--2-2--2-2---2----2---2----2----2---|
E|-7--7-7--7-7---4--4-4--4-4----0--0-0--0-0---0----0---0----0----0---|
   Hey suburbia, hey suburbia , Hey suburbia, we're in love with you

Lyrics to Second Verse

We won't end up like you want us to be
But so what cause we're always gonna be happy
Cause we don't give a shit about tomorrow
Tell us we'll regret the things we did
But we're just gonna give you a big wet kiss
Cause we don't give a shit about tomorrow
Comments