Screeching Weasel - Hey Suburbia Chords & Tabs

 

Hey Suburbia Chords & Tabs

Screeching Weasel Chords & Tabs

Version: 1 Type: Bass Tab 0 ratings
1 star 2 stars 3 stars 4 stars 5 stars
comments

Hey Suburbia Bass Tab

Song Title: Hey Suburbia
Artist: Schreeching Weasel
----------------------------------------------

Screeching Weasel
Hey Surburbia

Verse 1
G ------------------------------------------------------------------
D ------------4--21-----------4--21------------4--21----------------
A ---2222------------------------------------------------4444--6666- x 2
E ---------------------4444-------------0000------------------------

Verse 2
					   1st End.  2nd End.
G -----------------------------------------[---------][----------]
D -----------------------------------------[---------][----------]
A ---22222222-------------------22222222---[44444444-][-6666666--] x 2
E ------------------4444--2222-------------[---------][----------]

Verse 3

G -------------------------------------
D -------------------------------------
A --6664--6664---6664--77-6------------ x 2
E -------------------------7-----------
[ Tab from: http://www.guitartabs.cc/tabs/s/screeching_weasel/hey_suburbia_btab.html ]
At  this point you will play verse 2 again till the end of 
verse 3 and then play verse 1 through verse 3 again then 
continue to verse 4.

Versre 4

G --------------------------------------------
D --------------------------------------------
A --2222222222222222222222222---- Play this for a while
E --------------------------------------------

Verse 5

G --------------------------------------
D --------------------------------------
A --6-64---6-64---7-6-----7-6----------- x 4
E -------------------7-------7----------

Verse 6

G -----------------------------------------
D -----------------------------------------
A --66-44---66-44---77-6-----77-6---------- x 3
E ----------------------7--------7---------

Verse 6

G -----------------------------------------
D -----------------------------------------
A --66-44---66-44---77-6----77-6----------- x 1
E ----------------------7-------7----------



Have Fun!! E-mail me if you have any questions.  at barry32@colorado.net



Submitted by:  jeff barry (barry32@colorado.net)

Comments