Screeching Weasel - Dingbat Chords & Tabs

 

Dingbat Chords & Tabs

Screeching Weasel Chords & Tabs

Version: 1 Type: Tab 0 ratings
1 star 2 stars 3 stars 4 stars 5 stars
comments

Dingbat Tab

TAbbed By MAtt Shepard
song: dingbat

Main riff: 
|------------------ | 
|------------------ |
|-----8-----7------ | 
|--5--8--8--7------ |
|--5--6--8--5------ |
|--3-----6--------- | 
[ Tab from: http://www.guitartabs.cc/tabs/s/screeching_weasel/dingbat_tab.html ]
Solo           repeat   then   
|--------------------------|---------------------------------------| 
|--------------------------|---------------------------------------| 
|--------------------------|---------------------------------------| 
|--------------------------|---------------------------------------| 
|------6-5-3-5-3-1-3-1-0---|-----6-5-3-5-6-8-6-5-6-5-3-1-0---------| 
|--3-3-------------------3-|-3-3---------------------------3-------| 

Chorus : "she's a dingbat" x2
| -------------- |
| -------------- |
| -----8-----7-- |
| --5--8--8--7-- |
| --5--6--8--5-- |
| --3-----6----- |

Verse:
| --------------------------- |
| --------------------------- |
| -----8-----7-----8--------- |
| --5--8--8--7--5--8--8--10-- |
| --5--6--8--5--5--6--8--10-- |
| --3-----6-----3-----6--8--- |
Comments