Screeching Weasel - A New Tomorrow Chords & Tabs

 

A New Tomorrow Chords & Tabs

Screeching Weasel Chords & Tabs

Version: 2 Type: Tab 0 ratings
1 star 2 stars 3 stars 4 stars 5 stars
comments

A New Tomorrow Tab

Band: Screeching Weasel
Song: A New Tomorrow

Tabber: John Cukras
email: riffreaper@yahoo.com

Tuning: normal

Riff 1:
E--------------------------------|
B--------------------------------|
G--------------------------------|
D-2222222-55----------77---------|
A-2222222-33-55555555-55---------|
E-0000000----33333333---  x's 11-|
pm.......    ........

Riff 2:
E---------------------------------------|
B---------------------------------------|
G---------------------------------------|
D-2222222---------7777777-5555555-------|
A-2222222-5555555-5555555-3333333-------|
E-0000000-3333333---------------- x's 2-|

Riff 1 x's 8

Riff 2

Riff 1 x's 10, fades out. Leads played with.
[ Tab from: http://www.guitartabs.cc/tabs/s/screeching_weasel/a_new_tomorrow_tab_ver_2.html ]
LEAD RIFF A (PLAYED 4 TIMES TOTAL)
E|--0---3-5-3--2-----2------3-5-3--2-----2------|
B|----------------3-----0-------------3---------|
G|----------------------------------------------|
D|----------------------------------------------|
A|----------------------------------------------|
E|----------------------------------------------|

LEAD RIFF B (PLAY UNTIL SONG FADES OUT)
E|--7-7-7-7-7-7-7-7-5---5---------7-8-7-5---5---|
B|--------------------8----8-8--8---------8-----|
G|----------------------------------------------|
D|----------------------------------------------|
A|----------------------------------------------|
E|----------------------------------------------|

Lead done by:
Craig
EMail: borderpunk3@yahoo.com
Comments