Screaming Trees - Where The Twain Shall Meet Chords & Tabs

 

Where The Twain Shall Meet Chords & Tabs

Screaming Trees Chords & Tabs

Version: 2 Type: Bass Tab 0 ratings
1 star 2 stars 3 stars 4 stars 5 stars
comments

Where The Twain Shall Meet Bass Tab

"Where the Twain Shall Meet" by the Screaming Trees.  From the Album Buzz Factory   on
SST Records.  Transcribed by FMW3.

     Body of Song            16x                                         
G---||-------------------------||
D---||*-----------2--0--------*||
A---||*-----------------2--0--*||
E---||---3--0--3---------------||
                                                                         

     Chorus: (you never know when the twain shall meet..)                                                                      
G---|-----------------------------------------------------------------------
D---|---------------------------------2--0----------------------------------
A---|---------------------------0--2--------2--0----------------------------
E---|3--3-----3--2-----2--2--3--------------------3-----3--3--2-----2--2----
                                                                           

                                                                           
G-----------------------------------------------------------------------|
D------------------------------------------------------------2--0-------|
A---0--0--0--------------------------------------------0--2--------2--0-|
E------------0-----0--0--0--3--3-----3--2-----2--2--3-------------------|
                                                                           

      Body                   10x                                         
G---||-------------------------||
D---||*-----------2--0--------*||
A---||*-----------------2--0--*||
E---||---3--0--3---------------||
                                                                           

     Chorus                                                                      
G---|-----------------------------------------------------------------------
D---|---------------------------------2--0----------------------------------
A---|---------------------------0--2--------2--0----------------------------
E---|3--3-----3--2-----2--2--3--------------------3-----3--3--2-----2--2----
                                                                           
[ Tab from: http://www.guitartabs.cc/tabs/s/screaming_trees/where_the_twain_shall_meet_btab_ver_2.html ]
                                                                           
G----------------------------------------------------------------------|
D------------------------------------------------------------2--0------|
A---0--0--0--------------------------------------------0--2--------2--0|
E------------0-----0--0--0--3--3-----3--2-----2--2--3------------------|
                                                                           

                               3x                                          
G---||-------------------------||
D---||*-----------2--0--------*||
A---||*-----------------2--0--*||
E---||---3--0--3---------------||
                                                                           

     Refrain before the end of the song                                                                    
G---|-------------------------------------------------------------------
D---|---------------------------------------------------------------2---
A---|5-----5--5--5--5--5------------------------------------------------
E---|---------------------5-----5--5--5--5--5--3--0--3--0--3--0--3------
                                                                           

                                                                           
G--------------------------------------------------------------------------
D---2--2--2--2--2--2--2--------------------------------------------2--0----
A------------------------5-----5--5--5--5--5-------------------------------
E---------------------------------------------5-----5--5--5--5--5----------
                                                                           

                                                      
G---------|     
D---------|
A---2--0--|       
E---------|                                                                                  

       repeat until the end                                   
G---||-------------------------||
D---||*-----------2--0--------*||
A---||*-----------------2--0--*||
E---||---3--0--3---------------||


NOTES:  This song is one of the Trees' best.  They definitely did their best work when they were on SST
records.  Most people don't know about their SST songs...that is a shame.  I plead with you to check out all
of their records on SST and see what you are missing if you have never heard them before...much different
from their big label stuff (and much better).  If you have any questions or comments, please E mail me at
XAQK88A@prodigy.com.  Thanx.
Comments