Screaming Trees - No One Knows Chords & Tabs

 

No One Knows Chords & Tabs

Screaming Trees Chords & Tabs

Version: 1 Type: Bass Tab

No One Knows Bass Tab

Band:Screaming Trees
Song: No one knows
Album: Sweet Oblivion(1992)
Bass: Van Conner
Tabber: Stefan Langkabel

For me itīs the best song of this album, so here it is...

Measure: 4/4
Every crotchet presents three quavers, so itīs a triplet!

Intro/Chorus( guitar chords start at first):

        1  +  2  +  3  +  4  +   1  +  2  +  3  +  4  +  
G|--4-5|------------------------|--------------------4-5-|
D|5----|3-----3-3-3-------------|5-----5-5-5-5-----5-----|
A|-----|------------3-----3-3-3-|------------------------|
E|-----|------------------------|------------------------|

Verse:

  1  +  2  +  3  +  4  +   1  +  2  +  3  +  4  +  
G|------------------------|------------------------|
D|3-----3-3-0-------------|------------------------|
A|------------3---------3-|------------------------|
E|------------------------|3-----3-3-3-3-----------|

End of the Verse:

Version I
[ Tab from: http://www.guitartabs.cc/tabs/s/screaming_trees/no_one_knows_btab.html ]
  1  +  2  +  3  +  4  +   1  +  2  +  3  +  4  + 
G|------------------------|--------------------4-5-|
D|3-----3-3-0-------------|------------5-----5-----|
A|------------3-----------|5-----5-5-5-------------|
E|------------------------|------------------------|

Version II

G|------------------------|------------------0-4-5-|
D|3-----3-3-0-------------|------------------------|
A|------------3-----3-3-3-|5-----5-5-5/10----------|
E|------------------------|------------------------|

End of the Chorus:

G|------------------------|------------------------|
D|3----3-3-3--------------|5-----5-5-5-5-----------|
A|-----------3----------3-|------------------------|
E|------------------------|------------------------|

End:

  1  +  2  +  3  +  4  +   1  +  2  +  ...
G|------------------------|---------------
D|3-----------------------|---------------
A|------------3-----------|---------------
E|------------------------|3--------------

During the solo you play the chorus. I Think this song is
pretty good to create some own ideas. This tab presents mainly
the keynotes and ( as good as I can ) the rhythm.

Order:
Chorus/Intro 1x
End of the Chorus 1x
Verse 3x
End of the Verse 1x
Chorus 3x
End of the Chorus 1x
Verse 4x
End of the Verse 1x
Chorus(and Solo) 8x  
Verse 4x
End of the Verse 1x
Chorus(and Solo) 9x
End 1x
 
Send me any corrections or questions: stefan.langkabel@freenet.de