Screaming Trees - Nearly Lost You Chords & Tabs

 

Nearly Lost You Chords & Tabs

Screaming Trees Chords & Tabs

Version: 3 Type: Tab 0 ratings
1 star 2 stars 3 stars 4 stars 5 stars
comments

Nearly Lost You Tab

   
-----------------------------------------------------------------------------
			     NEARLY LOST YOU - Screaming Trees
-----------------------------------------------------------------------------


Tabbed by: Chris Mckeown
Email: cmckeown@iprimus.com.au

This is quite Accurate if you have a better version please email me it

Tuning: Standard

First Part (intro)


|-3-3---3-3----5-5---5-5-----0
|-3-3---4-3----5-5---6-5-----0
|-4-4---5-4----6-6---7-6-----1
|-5-5---5-5----7-7---7-7-----2
|-5-5---3-5----7-7---5-7-----2
|-3-3------3----5-5-----5-----0

E
|----------10-----------------------------------------|
|-10h12------10h12p10h12--------10-10/12--------------|
|-----------------------------------------12---9~~~---|
|-----------------------------------------------------|
|-----------------------------------------------------|
|-----------------------------------------------------|



Verse
E
Did you........
G5                              A5
Calling........

E
|-----------10----------10-----------10-----------------|
|---10/12-----10h12------10h12-----10/12-12p10----------|
|------------------------------------------------12--9~-|
|-------------------------------------------------------|
|-------------------------------------------------------|
|-------------------------------------------------------|

E
Like the........
G5                              A5
Calling........

E
|-----------10----------10-----------10-----------------|
|---10/12-----10h12------10h12-----10/12-12p10----------|
|------------------------------------------------12--9~-|
|-------------------------------------------------------|
|-------------------------------------------------------|
|-------------------------------------------------------|
[ Tab from: http://www.guitartabs.cc/tabs/s/screaming_trees/nearly_lost_you_tab_ver_3.html ]
Chorus
D5     C5
/    /    /
              i nearly.....
C7     A5  G5
/    /    /    /
              i nearly.....
C7     A5  G5
/    /    /    /
             And its.....
C7     A5  G5
/    /    /    /
              i nearly.....
C7     A5  G5
/    /    /    /
             And its.....

Solo

Solo riff a 2x
|--------------------------------------------------|
|--------------10---10h12p10-----------------------|
|-------9/12-------------------12/9--12------9/7---|
|-----------------------------------------------12-|
|--------------------------------------------------|
|--------------------------------------------------|

Solo riff b
|--------------------------------------------------------|
|--------------------------------------------------------|
|--2/4--7-------9p7------9p7------15trem/21(23)-21-------|
|-----------------------9---------9-------------------21-|
|--------------------------------------------------------|
|--------------------------------------------------------|

The parts after this are distorted and i cant work them out
i just keep tremming the 21 on the 4th string

Post solo a
|-------------------------------------------------|
|--10////////12trem--12-12/10---------------------|
|-------------------------------12-9--------------|
|-------------------------------------------------|
|-------------------------------------------------|
|-------------------------------------------------|

Post solo b
|------------------------------------------|
|---------10-12trem----12/10---------------|
|--9-12---------------------------12-9-----|
|------------------------------------------|
|------------------------------------------|
|------------------------------------------|


Post solo c
|--------------------------------------------|
|---12trem-10trem-12trem--12-12/10-----------|
|----------------------------------12-9trem--|
|--------------------------------------------|
|--------------------------------------------|
|--------------------------------------------|


Listern to the song to Know where each part goes

| /  slide up
| \  slide down
| h  hammer-on
| p  pull-off
| ~  vibrato
| trem tremolo
| // tremolo slide
=============================================================================
Comments