Screaming Trees - Nearly Lost You Chords & Tabs

 

Nearly Lost You Chords & Tabs

Screaming Trees Chords & Tabs

Version: 1 Type: Bass Tab

Nearly Lost You Bass Tab

   
Screaming Trees - Nearly Lost You

Tabbed By Stephen Pang (piequat@hotmail.com)

Intro
G|---------------------------|
D|---------------------------|
A|--------3-----------5------|
E|-3--3-3---3--5--5-5---5--0-|

Pre-Verse
G|-------------------------------------|
D|-------------------------------------|
A|-7-7-7-x-7-x-7-7-0-3-3-3-x-3-x-3-3-5-| x2
E|-------------------------------------|

Verse
G|-------------------------------------|
D|-------------------------------------|
A|-7-7-7-x-7-x-7-7-0-3-3-3-x-3-x-3-3-0-|
E|-------------------------------------|
[ Tab from: http://www.guitartabs.cc/tabs/s/screaming_trees/nearly_lost_you_btab.html ]
G|------------------------------------------|
D|------------------------------------------|
A|--------3-----------5-------7-x-7-x-7-7-0-|
E|-3--3-3---3--5--5-5---5--0----------------|

Pre-Chorus
G|------------------|
D|------------------|
A|-7--7-0-5-5-0-3---|
E|------------------|

Chorus
G|---------------------------------|
D|---------------------------------|
A|-3-3-0----------------3--3-3-3p0-|
E|-------3--3-3-0-1-1-0------------|

G|-------------------------------|
D|-------------------------------|
A|-3-3-0----------------3--3-3-5-|
E|-------3--3-3-0-1-1-0----------|

Bridge
G|----------------|
D|----------------|
A|-7-----3--3-3-5-|
E|---5-3----------|

End
G|--------------------------|
D|--------------------------|
A|-3-3-0----------------3---|
E|-------3--3-3-0-1-1-0-----|