Screaming Jets - October Grey Chords & Tabs

 

October Grey Chords & Tabs

Screaming Jets Chords & Tabs

Version: 2 Type: Bass Tab 0 ratings
1 star 2 stars 3 stars 4 stars 5 stars
comments

October Grey Bass Tab

Song:October Grey
Artist:The Screaming Jets
Album:Hits and Pieces
Tabbed by:The Moose

This is basically it

intro
------------
------------
------------
----5-5-0-3-

verse 
-----------------------------------------------------------------
-----------------------------------------------------------------
---------------------------------------3-3-3-3-3-3---------------
--5-5-0-3---5-5-0-3--5-5-0-3--5-5-0-3---------------3-3-3-3-3-3--

----------------------
----------------------
----------------------
--5-5-0-3---5-5-0-3---
[ Tab from: http://www.guitartabs.cc/tabs/s/screaming_jets/october_grey_btab_ver_2.html ]
chorus 
-----------------------------------------------------------------
-----------------------------------------------------------------
--3-3-3-3-3-3-----------------------------------------3-3--------
---------------3-3-3-3-3-3--0-0-0-0-0-0--5-5-5-5-5-5-------------

bridge
------------------------
------------------------
------------------------
--5-5-5-8-9--5-5-5-8-7--

end
------------------------
------------------------
------------------------
--5---------------------

Intro - x4
Verse - x2
Chorus- x1
Verse - x2
Chorus- x2
Intro - x4
Bridge- x4
Intro - x4
Verse - x2
Chorus- x2
Intro - x4
Bridge- x4
End   - x1

Comments