Screaming Jets - Cmon Chords & Tabs

 

Cmon Chords & Tabs

Screaming Jets Chords & Tabs

Version: 1 Type: Bass Tab 0 ratings
1 star 2 stars 3 stars 4 stars 5 stars
comments

Cmon Bass Tab

                               BASSLINE FOR C'MON
                          As recorded by Screaming Jets
                        (From the recording ALL FOR ONE)

Transcribed by Michael Raisey
gemini67@globalfreeway.com.au

||------------------|-------------------||
||o-----------------|------------------o||
||o-----------------|------------------o||
||--5-5-5-5-5-5-5-5-|-5-5-5-5-5-0-2-0---||
  Intro

|-----------------|-----------------|-----------------|------------------|
|-----------------|-----------------|-----------------|------------------|
|-----------------|-----------------|-----------------|------------------|
|-5-5-5-5-5-5-5-5-|-5-5-5-5-5-5-5-5-|-5-5-5-5-5-5-5-5-|-5-5-5-5-5-0-2-0--|
  Verse
[ Tab from: http://www.guitartabs.cc/tabs/s/screaming_jets/cmon_btab.html ]
|-----------------|-----------------||----||----------------------------||
|-----------------|-----------------||----||o---7-7---5-5---4-4---2-2--o||
|-----------------|-----------------||----||o-0-----0-----0------------o||
|-3-3-3-3-3-3-3-3-|-3-3-3-3-3-3-3-3-||----||--------------------0-------||
 C'mon  let me show you how to do it          (this is the middle bit)


|---------|----------------|----------------|----------------|-------------|
|---------|----------------|----------------|----------------|-------------|
|---------|------3-(3)-----|------5-(5)-----|------3-(3)-----|-------------|
|----15\--|-3-5---------5--|-3-5---------5--|-3-5---------5--|-3-5--5-(5)--|
 during guitar solo the bass joins in

|------5-----------|-------|-||-------------------||-----------|
|-5-7------7-5-----|-------|-||o-----------------o||-----------|
|--------------7-5-|-4-----|-||o-0-2-3-4-5-------o||-----------|
|------------------|---7-5\|-||------------0-2-3--||-5-5-3-5\--|
 end of solo                    this is the ending

very cool song
Enjoy!!
--------------------------------------------------------------------------------

******************************************************************************************
* This file was generated with Power Tab Editor - Get it at http://home.tct.net/~blarsen *
******************************************************************************************

Comments