Screaming Jets - Better Chords & Tabs

 

Better Chords & Tabs

Screaming Jets Chords & Tabs

Version: 2 Type: Tab 0 ratings
1 star 2 stars 3 stars 4 stars 5 stars
comments

Better Tab

   
SCREAMING JETS
BetteR
standard tuning
any guitar player knows the keys e.g x = mute or /=slide
Intro
|-------------------------------------------|
|--5--5--5----------------------------------|
|------------6---6--6---4---4--4---6---6--6-|} repeat 8x times
|---7-----7----7------7---7------7---7------|
|-------------------------------------------|
|-------------------------------------------|

Still didn't know what happened when you knocked upon my door
The things you had and the life you lead are all dreams you had before
Your eyes your face your heart and soul you know they said it all
What happened on that day back then, the moment hurt us all

Pre-Chorus
|-----------------------------------------|
|--------------2--2---------7-------------|
|--2--------x--2--2-----7---7----9\7-9\7--|
|--4--4-----x--2--2-----7---7----9\7-9\7--|
|--4--4-----x--0--0-----5---5---7---------|
|--2--2-----------------------------------|
 Verse 1 over riff

Pre Chorus (Band in Guitar Single Strums)
F#                                         A                                   D         
              E
Now you see the reason why not everyone's the same

|-----------------------------------------|---------------------|
|--------------2--2---------7-------------|---------------------|
|--2--------x--2--2-----7---7----9\7-9\7--|-7---7--9--9-7-9-9-7-|
|--4--4-----x--2--2-----7---7----9\7-9\7--|-7---7--9--9-7-9-9-7-|
|--4--4-----x--0--0-----5---5---7---------|-5---5--7--7-7-7-7-7-|
|--2--2-----------------------------------|---------------------|
F#                                                     A                                 
 D                         E
You don't have to please them, or try hard to say your name

Back to Intro
Well the weeks go by and you wonder why is this really true
Your heart says no but your feelings show the whole thing had left you
You and I knew deep down that aint really you
We always knew that it would work out right and we can start anew
Chorus
|-----------------------------|--3------------------------------|
|-2----------------3----------|--3------------2-----------------|
|-2----------------0-----0--0-|--0---------2--2-----------------|
|-2------------2---2-----0--0-|--0---------2--2-------0-2-0-----|
|-0---------3--3---3-----2--2-|--2-------0----0---0-2-------4-2-|
|------------------------3--3-|--3------------------------------|
A                                                                        C
Say you'll never get anywhere, they don't care its just not fair
G                                                         A
You know an I know better
A                                                                            C
Say you never get anywhere, well they don't care its just not fair
G                                                      A
You know and I know better... yes I do

Followed by Intro,Pre-Chourus & Chorus

Interlude
|-------------------------------------------------|
|---2---------------------------------------------|
|---2---------HOLD Through out--------------------|
|---2---------------------------------------------|
|---0---------------------------------------------|
|-------------------------------------------------|
Well Things aint always what they seem
so wake up man get outta your dream
Things aint always what they seem so wake up
Things aint always what they seem
wake up man you're in my dream
Things aint always......

Pre Chorus (Band In)
Now you see the reason why not everyone's the same
You don't have to reason I'm trying hard..........

Chorus
Say you'll never get anywhere, they don't care its just not fair
You know an I know better
Say you never get anywhere, well they don't care its just not fair
You know and I know better
[ Tab from: http://www.guitartabs.cc/tabs/s/screaming_jets/better_tab_ver_2.html ]
Followed by Pre-chorus then Chorus
Solo
|----------------------------------------|
|----------------------------------------|
|--7b(9)----5-------7b---7b----5-----5---|
|------------7--7---------------7--7-----|
|----------------------------------------|
|----------------------------------------|
   ~  ~  ~  ~  ~
|----------------------------------------|
|----------------------------------------|
|--4--5--7--5--4-------------------------|
|-----------------5---7------------------|
|----------------------------------------|
|----------------------------------------|

|-------------------------------------8--|
|------------------------------8---10----|
|----5--------4----5\7--7---9------------|
|-----7----------------------------------|
|----------------------------------------|
|----------------------------------------|
                       w/bar......
|---7--8--10--8--7-----------------------|
|-------------------8--10---10--10--10b--|
|----------------------------------------|
|----------------------------------------|
|----------------------------------------|
|----------------------------------------|


|--17---------------------------------------------------------------17--20-|
|-----20b--20b----20br--20b--20--17--20----20br--17--20----20b--20b--------|
|--------------------------------------------------------------------------|
|--------------------------------------------------------------------------|
|--------------------------------------------------------------------------|
|--------------------------------------------------------------------------|

|--20br--17---20b-r--17---20b-r---17--17--------------------|
|----------17----------17-----------17---20b-r--17------20--|
|---------------------------------------------------19b-----|
|-----------------------------------------------------------|
|-----------------------------------------------------------|
|-----------------------------------------------------------|

|--------------------------------------------------------------------------|
|--20---20--20--20----------20-----------20----20------20------------------|
|--19b--19b-----19b-r19\17--19b--19b--19b---19b---19b-----19b-19b-r19\17\4-|
|--------------------------------------------------------------------------|
|--------------------------------------------------------------------------|
|--------------------------------------------------------------------------|
 OUTRO
|-------------------------------------3-----|
|-------------------------------------3-----|
|--5----------------------------------0-----|
|--5----------------------------------0-----|
|--3----------------------------------2-----|
|-------------------------------------3-----|

OUTRO (Single Strums)
Say you'll never get anywhere, they don't care its just not fair
You know an I know better

1,2,3,4 Speed up like hell
Say you'll never get anywhere, they don't care its just not fair........

You're never gonna get anywhere, that's what they tell me
 Never never never never never never never gonna get anywhere
I don't care and that's not fair

|-------------------------------------17--17--20b---|
|---20bb--20b-r20\17---20--20------8----------------|
|--------------------19----19------7b---------------|
|---------------------------------------------------|
|---------------------------------------------------|
|---------------------------------------------------|
Well they don't care and it's just not fair
That you know and I know better

|20-17----------------------------------------------------------------------|
|------20b--r20\17--20b--r20\17----20---------------------------------------|
|-------------------------------19b--19b--r--17\19\17--17-17--17\19\17------|
|----------------------------------------------------------------------17---|
|---------------------------------------------------------------------------|
|---------------------------------------------------------------------------|

Tabbed by Jon_Boi. Took me ages. No one had a tab out like the above. Not anywhere.
For my effort rate me. Thanks
Comments