Screaming Jets - Better Chords & Tabs

 

Better Chords & Tabs

Screaming Jets Chords & Tabs

Version: 1 Type: Tab 0 ratings
1 star 2 stars 3 stars 4 stars 5 stars
comments

Better Tab

x-palm mute
\-slide


Intro
|-------------------------------------------|
|-------------------------------------------|
|----7-7-7---4-4-4------------4-4-4---------|}repeat several times
|--5-------5-------5-7-7-7--5---------------|
|-------------------------------------------|
|-------------------------------------------|
Still did'nt know what happened when.....


Pre-Chorus
|-----------------------------------------|
|--------------2--2---------7-------------|
|--2--------x--2--2-----7---7----9\7-9\7--|
|--4--4-----x--2--2-----7---7----9\7-9\7--|
|--4--4-----x--0--0-----5---5---7---------|
|--2--2-----------------------------------|
Now I see the reason why not........
[ Tab from: http://www.guitartabs.cc/tabs/s/screaming_jets/better_tab.html ]
|-----------------------------------------|---------------------|
|--------------2--2---------7-------------|---------------------|
|--2--------x--2--2-----7---7----9\7-9\7--|-7---7--9--9-7-9-9-7-|
|--4--4-----x--2--2-----7---7----9\7-9\7--|-7---7--9--9-7-9-9-7-|
|--4--4-----x--0--0-----5---5---7---------|-5---5--7--7-7-7-7-7-|
|--2--2-----------------------------------|---------------------|
You dont have to please them................................

Back to Intro

Chorus
|-----------------------------|--3------------------------------|
|-2----------------3----------|--3------------2-----------------|
|-2----------------0-----0--0-|--0---------2--2-----------------|
|-2------------2---2-----0--0-|--0---------2--2-------0-2-0-----|
|-0---------3--3---3-----2--2-|--2-------0----0---0-2-------4-2-|
|------------------------3--3-|--3------------------------------|
Say you never get anywhere Well they dont care and its..........

Followed by Intro,Pre-Chourus & Chorus

Interlude
|-------------------------------------------------|
|---2---------------------------------------------|
|---2---------HOLD Through out--------------------|
|---2---------------------------------------------|
|---0---------------------------------------------|
|-------------------------------------------------|
Things arent always what they seem................

Followed by Pre-chorus then Chorus


By Mr ZEP
Daniel Bowman inc
Comments