Screaming Jets - Better Chords & Tabs

 

Better Chords & Tabs

Screaming Jets Chords & Tabs

Version: 1 Type: Bass Tab 0 ratings
1 star 2 stars 3 stars 4 stars 5 stars
comments

Better Bass Tab

SCREAMING JETS - "Better" - Bass Tab

Common Time(4/4)
Standard Tuning(EADG)

INTRO:
        (x3)                                 (x4)
|-----------|-----------|-------------------------|
|*---------*|-----------|*-----------------------*|
|*-r-r-r-r-*|-r-r-r-----|*-----------------------*|
|-----------|-------12/-|--5-r-5-5-r-5-5-r-5-5-3--|
   1 2 3 4    1 2 3 4      1 & a 2 & a 3 & a 4 &

                                               (x4)
|--------------------------|------------------------|
|*-------------------------|-----------------------*|
|*-------------------------|-----------------------*|
|--5-r-5-5-r-5-5-r-5-5-r-5-|-5-r-5-5-r-5-5-r-5-5-3--|
   1 & a 2 & a 3 & a 4 & a   1 & a 2 & a 3 & a 4 &

VERSE:
                                               (x3)
|--------------------------|------------------------|
|*-------------------------|-----------------------*|
|*-------------------------|-----------------------*|
|--5-r-5-5-r-5-5-r-5-5-r-5-|-5-r-5-5-r-5-5-r-5-5-3--|
   1 & a 2 & a 3 & a 4 & a   1 & a 2 & a 3 & a 4 &

|-------------------------|-----------------|
|-------------------------|-----------------|
|-------------------------|-----------------|
|-5-r-5-5-r-5-5-r-5-5-r-5-|-5-r-5-5-r-5-5-3-|
  1 & a 2 & a 3 & a 4 & a   1 & a 2 & a 3 4

PRE-CHORUS: 
                 
|---------|---------|---------|---------|
|---------|---------|---------|---------|
|---------|-5-5-----|---------|-5-5-----|
|-2-2-5-5-|-----0-0-|-2-2-5-5-|-----0-3-|
  1 2 3 4   1 2 3 4   1 2 3 4   1 2 3 4

CHORUS:
|--------------------------|---------------------|
|*-------------------------|---------------------|
|*-------------------------|-3-r-3-3-r-3-3-------|
|--5-r-5-5-r-5-5-r-5-5-r-5-|---------------0-1-2-|
   1 & a 2 & a 3 & a 4 & a   1 & a 2 & a 3 & 4 &
[ Tab from: http://www.guitartabs.cc/tabs/s/screaming_jets/better_btab.html ]
                                            (x2)
|---------------------|--------------------------|
|---------------------|-------------------------*|
|---------------------|-------------------------*|
|-3-r-3-3-r-3-3-0-2-3-|-5-r-5-5-r-5-5-r-5-5-r-5--|
  1 & a 2 & a 3 & 4 &   1 & a 2 & a 3 & a 4 & a

MIDDLE BIT:
|-----------|---.-----|---------|---.---------|-.-----9-10----|
|-----------|---5-----|---------|---5---4-5-6-|-7-r-r------12-|
|---.-------|-.-------|-.-------|-.-----------|---------------|
|-r-5-r-4-3-|-5---r-3-|-5-----3-|-5-----------|---------------|
  1 2 3 & 4   1 2 3 4   1 2 3 4   1 2 3 & 4 &   1 2 3 & 4  &

  .               .               .
|-9-r-r-9-10----|-9-r-r-9-10----|-9-r-9-10----|----r-r-9-10----|
|------------12-|------------12-|----------12-|-r-----------12-|
|---------------|---------------|-------------|----------------|
|---------------|---------------|-------------|----------------|
  1 2 3 & 4  &    1 2 3 & 4  &    1 2 & 3  4    1  2 3 & 4  &

  .               .               .
|-9-r-r-9-10----|-9-r-r-9-10----|-9-r-----|
|------------12-|------------12-|---------|
|---------------|---------------|---------|
|---------------|---------------|-----5-3-|
  1 2 3 & 4  &    1 2 3 & 4  &    1 2 3 4

END:
|---------|---------|---------|---------|------------------|
|---------|---------|---------|---------|*-----------------|
|---------|---------|---------|---------|*-.-.-.-.-.-.-.-.-|
|-5/1-r-r-|-r-r-r-r-|-r-r-r-r-|-r-r-r-r-|--5-5-5-5-5-5-5-5-|
  1 2 3 4   1 2 3 4   1 2 3 4   1 2 3 4    1 & 2 & 3 & 4 &

                                                   (x4)
|-----------------|-----------------|------------------|
|-.-.-.-.-.-------|-----------------|---------5-------*|
|-3-3-3-3-3-------|-.-.-.-.-.-------|-----5-7---7-5---*|
|-----------0-1-2-|-3-3-3-3-3-0-2-3-|-5-7-----------7--|
  1 & 2 & 3 & 4 &   1 & 2 & 3 & 4 &   1 & 2 & 3 & 4 &

|-----------------|---------|-----------|---------|-----------|
|-----------------|---------|-----------|---------|-----------|
|-.-.-.-.-.-.-.-.-|-3-------|---------0-|---------|-----------|
|-5-5-5-5-5-5-5-5-|---------|-----------|-3-------|---------3-|
  1 & 2 & 3 & 4 &   1 2 3 4   1 2 3 4 &   1 2 3 4   1 2 3 4 &   

|---------| There's more but I can't figure it out...
|---------|
|---------|
|-5-------|
  1 2 3 4

By: Johari Taylor
E-mail: viking@powerup.com.au
Comments