Screaming Females - Theme Song Chords & Tabs

 

Theme Song Chords & Tabs

Screaming Females Chords & Tabs

Version: 1 Type: Tab 0 ratings
1 star 2 stars 3 stars 4 stars 5 stars
comments

Theme Song Tab

Song: Theme Song
Album: What If Someone Is Watching Their T.V.?
Artist: Screaming Females

Note: Play this in Standard Tuning. Also I'll be using asterisks (*) throughout
the tab to add little comments.

Intro/Chorus/Hook:
e|--x-----------------x-----------------|
B|--x-----------------x-----------------|
G|--x-----------------x-----------------|
D|--x-11-11b12-12r11--x-14-14b16-16r14--|
A|--x-----------------x-----------------|
E|--x-----------------x-----------------|

Verse:
e|---------------------------------------------------------------------|
B|--17--17-15--15--14--15-14h15p14p12-14p12-10/17--17-15--15--14~~~~~--|
G|---------------------------------------------------------------------|
D|---------------------------------------------------------------------|
A|---------------------------------------------------------------------|
E|---------------------------------------------------------------------|
   You are always talking and you never stop  The faceless foreign few/
 This a nice place that you've been living in  All processed in cans

e|---------------------------------------------------------------------|
B|--17--17-15--15--14--15-14h15p14p12-14p12-10/17--17-15--15--14~~~~~--|
G|---------------------------------------------------------------------|
D|---------------------------------------------------------------------|
A|---------------------------------------------------------------------|
E|---------------------------------------------------------------------|
   And all the girl's guts in between your teeth  Grow roots into you/
   Tricking black ponies into a crippled dance    Buried in the sand

e|-------------------------------------------------------------------|
B|---17--17--17--17--17--17--17--17--17--17--17--17--17--17--17--17--|
G|-15--15--15--15--15--15--15--15--15--15--15--15--15--15--14--14----|
D|-------------------------------------------------------------------|
A|-------------------------------------------------------------------|
E|-------------------------------------------------------------------|
 I am a victim of the general public  Those sirens scream my name
[ Tab from: http://www.guitartabs.cc/tabs/s/screaming_females/theme_song_tab.html ]
e|-------------------------------------------------------------------|
B|---17--17--17--17--17--17--17--17--17--17--17--17--17--17-17/*-----|
G|-15--15--15--15--15--15--15--15--15--15--15--15--15--15---15/------|
D|-------------------------------------------------------------------|
A|-------------------------------------------------------------------|
E|-------------------------------------------------------------------|
 I am the man in the general public   But my voice remains the same

*Starting from here, tremolo pick up the fretboard like a maniac
while keeping the shape of the chord (I hope that makes sense)

Bridge:
e|-----------------------------------------------------------------------|
B|-15-15-15-15-15-15-14h15p14/12-12-12-12-12-12-10h12p10\7-7-7-7-5-5-5-5-|
G|-----------------------------------------------------------------------|
D|-----------------------------------------------------------------------|
A|-----------------------------------------------------------------------|
E|-----------------------------------------------------------------------|

e|-----------------|
B|-3-3-3-3-3-3-3/--|
G|-----------------|
D|-----------------|
A|-----------------|
E|-----------------|

e|--------------------------------------------------------------------------|
B|-15-15-15-15-15-15-14h15p14/12-12-12-12-12-12-10h12p10\7-7-7-7-5-5-5-5-3*-|
G|--------------------------------------------------------------------------|
D|--------------------------------------------------------------------------|
A|--------------------------------------------------------------------------|
E|--------------------------------------------------------------------------|

*After the note is held, bend slightly.

Transition to Outro:
e|----------------------------------|
B|----------------------------------|
G|----------------------------------|
D|----------------------------------|
A|--7-9-10-9-12-10-9-10-7~----------|
E|----------------------------------|

Outro:

e|-------------------------------|
B|-------------------------------|
G|-------------------------------|
D|--9/12--12-12----5-5-5--4-4-4--|
A|--7/10--10-10----3-3-3--2-2-2--|
E|-------------------------------|

Play the above part 8 times and then play this:

e|----------------------------------|
B|----------------------------------|
G|--9-11--12--11-14--12--11-12--9\--|
D|----------------------------------|
A|--7--9--10--9--12--10--9--10--7\--|
E|----------------------------------|

Song Order:

Intro/Chorus/Hook
Verse
Intro/Chorus/Hook
Verse
Bridge
Verse
Intro/Chorus/Hook
Transition to Outro
Outro
Comments