Screamfeeder - Ice Patrol Chords & Tabs

 

Ice Patrol Chords & Tabs

Screamfeeder Chords & Tabs

Version: 1 Type: Tab 0 ratings
1 star 2 stars 3 stars 4 stars 5 stars
comments

Ice Patrol Tab

screamfeeder url http://homepage.powerup.com.au/~timst/
australia


Screamfeeder - Ice Patrol

Tabbed By Stephen Pang (piequat@hotmail.com)

Intro
e|-----------------|-----------------|
B|-----------------|-----------------|
G|-4-4-4-4-4-4-4-4-|-4-4-4-4-4-4-4-4-|
D|-----------------|-----------------|
A|-----------------|-----------------|
E|-----------------|-----------------|
   1 + 2 + 3 + 4 +   1 + 2 + 3 + 4 +

e|-----7-------4---|-----9-------7---|-----4-------9---|
B|---0-------0-----|---0-------0-----|---0-------0-----|
G|-----------------|-----------------|-----------------|
D|-6-------7-------|---------6-------|-7---------------|
A|-----------------|-9---------------|---------9-------|
E|-----------------|-----------------|-----------------|
   1 + 2 + 3 + 4 +   1 + 2 + 3 + 4 +   1 + 2 + 3 + 4 + 

e|-----7-------4---|-----9-------7---|-----4-------9---|
B|---0-------0-----|---0-------0-----|---0-------0-----|
G|-----------------|-----------------|-----------------|
D|-6-------7-------|---------6-------|-7---------------|
A|-----------------|-9---------------|---------9-------|
E|-----------------|-----------------|-----------------|
   1 + 2 + 3 + 4 +   1 + 2 + 3 + 4 +   1 + 2 + 3 + 4 + 

Verse
e|-----------------|-----------------|
B|-----------------|-----------------|
G|-----6-----------|-----9-----------|
D|-----------------|-----------------|
A|---9-------------|---11------------|
E|-7---------------|-9---------------|
   1 + 2 + 3 + 4 +   1 + 2 + 3 + 4 +  

e|-----------------|---------|
B|-----------------|---------|
G|-----4-------4---|---------|
D|---2-------------|---------|
A|-----------7-----|---------|
E|-4-------5-------|---------|
   1 + 2 + 3 + 4 +   1 + 2 +   

+-
End Verse
e|-----------------|-----------------|
B|-----------------|-----------------|
G|-----6-----------|-----9-----------|
D|-----------------|-----------------|
A|---9-------------|---11------------|
E|-7---------------|-9---------------|
   1 + 2 + 3 + 4 +   1 + 2 + 3 + 4 +  

e|-----------------|-----------------|
B|-----------------|-----------------|
G|-----4-------4---|-----6-----------|
D|---2-------------|-----------------|
A|-----------7-----|---9-------------|
E|-4-------5-------|-7---------------|
   1 + 2 + 3 + 4 +   1 + 2 + 3 + 4 +  
[ Tab from: http://www.guitartabs.cc/tabs/s/screamfeeder/ice_patrol_tab.html ]
Interlude
e|-------------------|-----------------|
B|-------------------|-----------------|
G|-------------------|-----------------|
D|-9-9-9-11-11---7-7-|-7-9-9---7-7-7-9-|
A|-9-9-9-11-11---7-7-|-7-9-9---7-7-7-9-|
E|-7-7-7-9--9----5-5-|-5-7-7---5-5-5-7-|
   1 + 2 +  3  + 4 +   1 + 2 + 3 + 4 +  

e|------------------|
B|------------------|
G|------------------|
D|-9---9-9-9-11-11--|
A|-9---9-9-9-11-11--|
E|-7---7-7-7-9--9---|
   1 + 2 + 3 +  4  +    

e|-------------------|-----------------|
B|-------------------|-----------------|
G|-------------------|-----------------|
D|-9-9-9-11-11---7-7-|-7-9-9---7-7-7-9-|
A|-9-9-9-11-11---7-7-|-7-9-9---7-7-7-9-|
E|-7-7-7-9--9----5-5-|-5-7-7---5-5-5-7-|
   1 + 2 +  3  + 4 +   1 + 2 + 3 + 4 +  

e|------------------|----------|
B|------------------|----------|
G|------------------|----------|
D|-9---9-9-9-11-11--|-11-9-9---|
A|-9---9-9-9-11-11--|-11-9-9---|
E|-7---7-7-7-9--9---|-9--7-7---|
   1 + 2 + 3 +  4  +  1  + 2 + 

Chorus
e|-7---7---7-7-7-7-|-7-7-7-7---7-7-7-|
B|-9---9---9-9-9-9-|-9-9-9-9---9-9-9-|
G|-9---9---9-9-9-9-|-9-9-9-9---9-9-9-|
D|-9---9---9-9-9-9-|-9-9-9-9---9-9-9-|
A|-7---7---7-7-7-7-|-7-7-7-7---7-7-7-|
E|-7---7---7-7-7-7-|-7-7-7-7---7-7-7-|
   1 + 2 + 3 + 4 +   1 + 2 + 3 + 4 +

e|-7---7---7-7-7-7-|-7-7-7-7---7-7-7-|
B|-9---9---9-9-9-9-|-9-9-9-9---9-9-9-|
G|-9---9---9-9-9-9-|-9-9-9-9---9-9-9-|
D|-9---9---9-9-9-9-|-9-9-9-9---9-9-9-|
A|-7---7---7-7-7-7-|-7-7-7-7---7-7-7-|
E|-7---7---7-7-7-7-|-7-7-7-7---7-7-7-|
   1 + 2 + 3 + 4 +   1 + 2 + 3 + 4 +

e|-7---7---7-7-7-7-|-7-7-7-7---7-7-7-|
B|-9---9---9-9-9-9-|-9-9-9-9---9-9-9-|
G|-9---9---9-9-9-9-|-9-9-9-9---9-9-9-|
D|-9---9---9-9-9-9-|-9-9-9-9---9-9-9-|
A|-7---7---7-7-7-7-|-7-7-7-7---7-7-7-|
E|-7---7---7-7-7-7-|-7-7-7-7---7-7-7-|
   1 + 2 + 3 + 4 +   1 + 2 + 3 + 4 +

e|-0---0---0-0-0-0-|-0-0-0-0---0-0-0-|
B|-9---9---9-9-9-9-|-9-9-9-9---9-9-9-|
G|-9---9---9-9-9-9-|-9-9-9-9---9-9-9-|
D|-9---9---9-9-9-9-|-9-9-9-9---9-9-9-|
A|-0---0---0-0-0-0-|-0-0-0-0---0-0-0-|
E|-0---0---0-0-0-0-|-0-0-0-0---0-0-0-|
   1 + 2 + 3 + 4 +   1 + 2 + 3 + 4 +

Ending
e|-------------------|-------------------|
B|-------------------|-------------------|
G|---9---11---9---11-|---9---11---9---11-|
D|-9---9----9---9----|-9---9----9---9----|
A|-------------------|-------------------|
E|-------------------|-------------------|

e|-------------------|-----------------|
B|-------------------|-----------------|
G|-------------------|-----------------|
D|-9-9-9-11-11---7-7-|---9-9-----------|
A|-9-9-9-11-11---7-7-|---9-9-----------|
E|-7-7-7-9--9----5-5-|---7-7-----------|
   1 + 2 +  3  + 4 +   1 + 2 + 3 + 4 +
Comments