Scratching Post - Pants Down Chords & Tabs

 

Pants Down Chords & Tabs

Scratching Post Chords & Tabs

Version: 1 Type: Tab 0 ratings
1 star 2 stars 3 stars 4 stars 5 stars
comments

Pants Down Tab

   
Person: Theo Markou

song: Pants Down

artist: Scratching Post

tab: "Pants Down" by Scratching Post
tabbed by Theo Markou (skankboy@tomgreenshow.zzn.com)
as heard on the MP3 of "Pants Down" avalible at www.scratchingpost.com

As with all tabs and lyrics, their is a margin error. If you can erase
this margin by offering
me corrections I'm sure many people will appericate it. Anyhow, this
transcription sounds right,
it might be wrong. But please don't e-mail me saying "Nicole doesn't
play it like that!!".
Nicole uses open E tuning so she can play power chords with just her
index finger.

Guitar Tab: Figure out the strumming on some of the chords yourself
because I don't
            really wanna type out a million F5 and Bb5 chords.

Intro/Chorus:
|-----------------------------------|                
|-----------------------------------|
|-----------------------------------|
|-----------------------------------|
|-3--4-5-4--3-3-3--5--5-6-6--3-3-3--|
|-3--4-5-4--3-3-3--5--3/6\6--1-1-1--|
|-1--2/3\2--1-1-1--3--4/5\4---------|

Verses:
|-------------------|
|-------------------|
|-------------------|
|-------------------| 
|-3-3-3-3-3--4-4-4--| 
|-3-3-3-3-3--4-4-4--| 
|-1-1-1-1-1--2-2-2--| 
  |-------|
     p.m.

Bass Tab:
[ Tab from: http://www.guitartabs.cc/tabs/s/scratching_post/pants_down_tab.html ]
Intro/Chorus:
|-----------------------------------|                
|-----------------------------------|
|------------------1--3/4\3--1-1-1--|
|-1--3/4\3--1-1-1-------------------|

Verses/Bass Solo:
|-------------------|
|-------------------|
|-------------------|
|-1-1-1-1-1--2-2-2--|
  
DOD TEC4X Patch:


Electronica part:
If you don't own a copy of Re-Birth 338 you can always use the "Pix Of
Death" Pre-set on a
DOD TEC4X or TEC8, just turn the noise gate off. But, if you don't own
a Tec4X, Re-Birth, 
or a keyboard with appegiator, you're outta luck.



Lyrics (HELP ME!!!):

spoken: "Omigod kill me"

Keep looking for something sweet
??? you're the one I meet
Tell me you got a place to go
I'm thinking you're the one to know

We're goin', Let's do it
get it on we gotta make some magic
You'll ???, I'll look
get it on we gotta you gotta let me have it

Nuh Huh, you're given up yet
Nuh Huh, not stopping now

Take it easy, take it hard
Feel my ????, before I ????
Head's up, but your pants are down
Had girl but you came around

Now I'm leavin', not talkin'
Get it on you gotta ??? 
We're goin', Let's do it
get it on we gotta make some magic

Nuh Huh, you're given up yet
Nuh Hun, not stopping now
Ah Huh, I've got my mind set
Nuh Huh, 'cause I'm know how

There are things you got
There are things you're not

Comments