Scratch Acid - Unlike A Baptist Chords & Tabs

 

Unlike A Baptist Chords & Tabs

Scratch Acid Chords & Tabs

Version: 1 Type: Tab 0 ratings
1 star 2 stars 3 stars 4 stars 5 stars
comments

Unlike A Baptist Tab

Unlike A Baptist (low to high)

------------------------
------------------------
-9-------7---9-------7--
-9--7/9--7---9--7/9--7--
-7--7/9--5---7--7/9--5--
----5/7---------5/7----- you get the drift.

high part:

-----------------------------------------------
-----------------------------------------------
-9--9-9-9--11-9-11/12--11-9--14-12-11--12-11-9-
-----------------------------------------------
-----------------------------------------------
-----------------------------------------------

-------------------------------------
-------------------------------------
-11-9-11-11b*--9-11-11b--9-11--11b---
-------------------------------------
-------------------------------------
-------------------------------------

* the second time that riff is played, after that part, this is sneaked in:

-10--8-7---
-----------
-----------
-----------
-----------
-----------

First scale thing:
[ Tab from: http://www.guitartabs.cc/tabs/s/scratch_acid/unlike_a_baptist_tab.html ]
-------------------------------------------
-------------------------------------------
------------------------------------5h7p5--
-10-8-7------------------------5-7--------7
--------10-8-7-----------5-6-7-------------
---------------10-8--5-8-------------------

Second time:

-------------------------------------------
---------------------------------------4-5-
-----------------------------------5-7-----
-10-8-7------------------------5-7---------
--------10-8-7-----------5-6-7-------------
---------------10-8--5-8-------------------

-3-5-8-10-12-12-12-12-12-12-12-12-12-------
-------------------------------------------
-------------------------------------------
-------------------------------------------
-------------------------------------------
-------------------------------------------

-----------------------------
-----------------------------
-------------------9------7--
-9--2-4-7-9--2-4-7-9--7-9-7--
-9--2-4-7-9--2-4-7-7--7-9-5--
-7--0-2-5-7--0-2-5----5-7---- play around with 
second part of this during harmonica solo. End with 
solo by banging on high E powerchord. Song ends on 
high E whilst playing the main riff. 
Comments