Scratch Acid - Scale Song Chords & Tabs

 

Scale Song Chords & Tabs

Scratch Acid Chords & Tabs

Version: 2 Type: Bass Tab 0 ratings
1 star 2 stars 3 stars 4 stars 5 stars
comments

Scale Song Bass Tab

   
Scratch Acid - The Scale Song


Riff A:

G----------------------------------------------------------------|
D----------------------------------------------------------------|
A----------------------------------------------------------------|
E--2-2-2-2-2-2-2-2-1-1-1-1-1-1-1-1-/4-4-4-4-4-4-4-4-/12-12-12-12-|

G----------------|
D----------------|
A----------------|
E--12-12-12-12---|

G----------------------------------------------------------------|
D----------------------------------------------------------------|
A----------------------------------------------------------------|
E--5-5-5-5-5-5-5-5-4-4-4-4-4-4-4-4-/7-7-7-7-7-7-7-7-/12-12-12-12-|
[ Tab from: http://www.guitartabs.cc/tabs/s/scratch_acid/scale_song_btab_ver_2.html ]
G----------------|
D----------------|
A----------------|
E--12-12-12-12---|

Riff B:

G--------------------------------------------------------------|
D--------------------------------------------------------------|
A--------------------------------------------------------------|
E--7-7-7-7-7-7-7--5-5-5-5-5-5-5--3-3-3-3-3-3-3--0-0-0-0-0-0-0--|

Near the end of the "song", that riff is played with a varied rhythm:

G-----------------------------------------------------------------|
D-----------------------------------------------------------------|
A-----------------------------------------------------------------|
E--7-7--7-7-7-7-7--5-5--5-5-5-5-5--3-3--3-3-3-3-3--0-0-0-0-0-0-0--|

The song ends with riff A, bending those high E notes when coming to
the song's completion.

Enjoy!
Comments