Scratch Acid - Owners Lament Chords & Tabs

 

Owners Lament Chords & Tabs

Scratch Acid Chords & Tabs

Version: 1 Type: Tab 0 ratings
1 star 2 stars 3 stars 4 stars 5 stars
comments

Owners Lament Tab

   
This is the same person who sent in that other tab for Owner's Lament.
That one is wack! Here's a better one.

Owner's Lament (low to high)

Bass:

Main part:

-------------------------------------
-----7-7--6-6-----------7-7--6-------
-0-0----------7-7---0-0--------7-5-4-
-------------------------------------

---------------------------------------
------5-5--4-4------------5-5--4-------
---------------5-5---------------5-3-2-
-3-3-----------------3-3---------------

Chorus:

--------------------------------
--------------------------------
--------------------------------
-1-1-1-1-1-1-1-0--0-0-0-0-0-0-0- 3x

--------------------------------
--------------------------------
--------------------------------
-1-1-1-1-1-1-1-0----------------

Throughout the verse, the notes in the verse are played lotsa extra times, faster. 
[ Tab from: http://www.guitartabs.cc/tabs/s/scratch_acid/owners_lament_tab.html ]
Guitar:

Guitar follows "Main part" bass when "Main part" is being played.

Chorus: F E

First little ditty after chorus:

----------------------------
-0--2^0---------------------
--------2^0-----------------
------------2^0-------------
----------------2^0---------
--------------------3^0-0---

Second ditty:

------------2^0-----------------
-0--2^0---------3^0-------------
--------2^0---------2^0---------
------------------------2^0-----
----------------------------0---
--------------------------------

The third ditty is the same as the first one.

First bit of guitar solo:

------------------------------------
------------------------------------
------------------------------------
------7-7--6-7--7/9--7-6---6--------
-0-0---------------------7---7-6-7--
------------------------------------

^=pull-off
/=slide 
Comments