Scratch Acid - Owners Lament Chords & Tabs

 

Owners Lament Chords & Tabs

Scratch Acid Chords & Tabs

Version: 2 Type: Bass Tab 0 ratings
1 star 2 stars 3 stars 4 stars 5 stars
comments

Owners Lament Bass Tab

Owner?s Lament ? Scratch Acid

Main riff:

G--------------------------------------------------|
D-------7-7--6-6---------------7-7--6--------------|
A-----------------7-7------------------7-5-4-------|
E--5-5--------------------5-5----------------------|

G---------------------------------------------------|
D-------5-5--4-4---------------5-5--4---------------|
A----------------5-5-------------------5-3-2--------|
E--3-3--------------------3-3-----------------------|

Chorus:
[ Tab from: http://www.guitartabs.cc/tabs/s/scratch_acid/owners_lament_btab_ver_2.html ]
G---------------------------------------------|
D---------------------------------------------|
A---------------------------------------------|
E--1-1-1-1-1-1-1-1--0-0-0-0-0-0-0-0-----------|play 3, then:

G---------------------------------------------|
D---------------------------------------------|
A---------------------------------------------|
E--1-1-1-1-1-1-1-1--0-------------------------|

End song with:

G---------------------------------------------------|
D-------7-7--6-6---------------7-7--6---------------|
A-----------------7-7------------------7-5-4--------|
E--5-5--------------------5-5-------------------5---|

Enjoy!
Comments