Scratch Acid - Lay Screaming Chords & Tabs

 

Lay Screaming Chords & Tabs

Scratch Acid Chords & Tabs

Version: 2 Type: Tab 0 ratings
1 star 2 stars 3 stars 4 stars 5 stars
comments

Lay Screaming Tab

   
"Lay Screaming" (From low to high)

 Notation:

 ~ = vibrato
 b = bend
 () = keep that note bending!
 x = muted strings over natural harmonics at 12th fret
 ... = play these notes a lot

 Main riff:

 --------------|
 --------------|
 --------------|
 --------------|
 --------------|
 -3~--3~--3~4~-|
 Bend those notes/Shake them/etc.

 Pre-chorus:

 --------------------------------------------|
 --------------------------------------------|
 -12-xxxx-12-xxxx-12-13---12-xxxx-12-xxxx-12-|
 -12-xxxx-12-xxxx-12-13---12-xxxx-12-xxxx-12-|
 -10-xxxx-10-xxxx-10-11---10-xxxx-10-xxxx-10-|
 --------------------------------------------|

 --------------------------------------------|
 --------------------------------------------|
 -13---12-xxxx-12-xxxx-12-13---12--12-12-12--|
 -13---12-xxxx-12-xxxx-12-13---12--12-12-12--|
 -11---12-xxxx-12-xxxx-10-11---10--10-10-10--|
 --------------------------------------------|

 ---------------------|
 ---------------------|
 -12-12-12--12-12-12--|
 -12-12-12--12-12-12--|
 -10-10-10--10-10-10--|
 ---------------------|

 Chorus:

 -------------------------|
 -------------------------|
 -------------------------|
 -------------------------|
 --------------------3-2--|
 -0--0-0-3--0-0--0-0------|

 Big "RAWK" solo (part one):

 ---------------------------------------------|
 ---------------12---------------12-----------|
 -12--12--12-13----13-12---12-13----13-12--13-|
 ---------------------------------------------|
 ---------------------------------------------|
 ---------------------------------------------|

 --------------------------------------------|
 --------------------------------------------|
 -12-----------------------------------------|
 ----13-12--12-12--12-12-12-12-12-12--12-12--|
 --------------------------------------------|
 --------------------------------------------|

 --------------------------------------------|
 --------------------12-12-------12-12-------|
 -------12-12--13-13-------13-13-------13-13-|
 -13-13--------------------------------------|
 --------------------------------------------|
 --------------------------------------------|
[ Tab from: http://www.guitartabs.cc/tabs/s/scratch_acid/lay_screaming_tab_ver_2.html ]
 --------------------------------------------|
 -12-12-------12-12-------12-12--------------|
 -------13-13-------13-13-------13-13--12-13-|
 --------------------------------------------|
 --------------------------------------------|
 --------------------------------------------|

 --------------------------------------------|
 --------------------------------12----------|
 -12-12--------12----------12-13----13-------|
 -------13-13-----13-12-13-------------------|
 --------------------------------------------|
 --------------------------------------------|

 (part two)

 --------------------------------------------|
 -b(12-12-12-12--12-12-12--12)--10-8-------8-|
 ------------------------------------9-7-9---|
 --------------------------------------------|
 --------------------------------------------|
 --------------------------------------------|

 -------------------------------------17-17--|
 ---10-----b(12-12--12-12-12-12--12)---------|
 -9----9-------------------------------------|
 --------------------------------------------|
 --------------------------------------------|
 --------------------------------------------|

 -17-17-17-17---15-15-------15---15----------|
 ---------------------15-15------15...-------|
 --------------------------------------------|
 --------------------------------------------|
 --------------------------------------------|
 --------------------------------------------|

 ---------------------------------------------|
 -15-15-------15-15---------------------------|
 -------16-16-------16-16---b(15-15-15-15-15--|
 ---------------------------------------------|
 ---------------------------------------------|
 ---------------------------------------------|

 --------------------------------------------|
 --------------------------------------------|
 -14-14--12-12-------12-12-------------------|
 --------------14-14-------14-14--12-12--13--|
 --------------------------------------------|
 --------------------------------------------|

 ------------------|
 ------------------|
 ----12-12--13-13--|
 -13---------------|
 ------------------|
 ------------------|

 Song structure

 Main riff 4x
 Pre-chorus 1x
 Chorus 8x
 Main riff 4x
 Pre-chorus 1x
 Chorus 8x
 Solo 1x
 Main riff 4x
 Pre-chorus 1x
 Chorus 8x

 End with:

 --------|
 --------|
 --------|
 --------|
 --------|
 -3~--3--|

Enjoy!
Comments