Scratch Acid - El Espectro Chords & Tabs

 

El Espectro Chords & Tabs

Scratch Acid Chords & Tabs

Version: 1 Type: Tab 0 ratings
1 star 2 stars 3 stars 4 stars 5 stars
comments

El Espectro Tab

El Espectro (low to high)

Bass and Guitar(approximation on number of times to play 
each note and rhythm):

---------------------------------------------
---------------------------------------------
-5--5-5-3-3-3-2--2-2--2-2-2-2--3--3-3-2-2-2-0
---------------------------------------------

----------------------------------
----------------------------------
-0-0--0-0-0-0--2--2-2-------------
----------------------3-3-3-0-----

Guitar follows this with powerchords. As for the little part 
between the chorus and the verses, I'm not sure about the bass, 
but the guitar is something like this:

----------------------------------------
----------------------------------------
----------------------------------------
-------2------------2-------2---2---2---
-2/3-2---2/3--2/3-2---2/3-2---2---2---2-
----------------------------------------

Verse (bass):

---------------------
-----4-------5--5----
-2-2---2-2-2---------
--------------------- play that for a while, then go up to

---------------------
-----7-------8--8----
-5-5---5-5-5---------
--------------------- then back to first thingie

the muted guitar lightly follows along with this.

first break (bass)
[ Tab from: http://www.guitartabs.cc/tabs/s/scratch_acid/el_espectro_tab.html ]
-------------------4------------------------
-2--4--5---2--4--5----2--4--5---2--4--5--4--
--------------------------------------------
--------------------------------------------

Guitar follows along just playing those same notes, but 
with a little added vibrato.

next (bass):

--------------------------------------------
---2-0--------2-0------2-0--------2-0-------
-2-----0--0-2-----0--2-----0--0-2-----0-0/3-
--------------------------------------------
play that 3 a bunch of times. guitar follows with powerchords.

next break (bass only) (number of notes approximated):

-----------------------------------------
-----------------------------------------
---------------------7-7-7-7-7-7-7-7-7-7-
-0-0-0-0-0-0-0-0-0-0---------------------

----------------------------------------
-/14-14-14-14-14-14-14-14---------------
----------------------------------------
----------------------------------------

then:

----------------
----------------
-7-7-7-8-8-8-10-
---------------- play that a lot. guitar follows with powerchords at first, 
then goes off into this thing that I haven't bothered to figure out.

end:

haven't bothered to figured it out. 

the very last thing is the bass playing this:

---------------------
-----4-------5--5----
-2-2---2-2-2---------
--------------------- and the guitar following along with powerchords. 
Comments