Scott Stapp - Justify Chords & Tabs

 

Justify Chords & Tabs

Scott Stapp Chords & Tabs

Version: 2 Type: Tab

Justify Tab

   
-------------------------------------------------------------------------------
			     Justify - Scott Stapp
-------------------------------------------------------------------------------
Tabbed by:orion910
Tuning: Drop D

Intro:

Verse 1

Gtr Clean

e|-----1---0--------------------1---0----------0h1-----------------1---0-----------------0h1-------|
B|------------3------------------------3----------3---3-------------------3-----------------3------|
G|---2---2---2-2-(2x)---------2---2---2-2----2-------2-3---------2---2---2-2(3x)-------2------2-2--|
D|--------------------------------------------------------------------------------------------0----|
A|--------------------------3--------------3-------------------1---------------------1-------------|
D|--0----------------------------------------------------------------------------------------------|
Repeat 5x

Play this Palm Mute at the start of the fifth time you repeat the intro.

Gtr Distorted

e|--------------------------------------------------------------------------|
B|--------------------------------------------------------------------------|
G|--------------------------------------------------------------------------|
D|--0xxxxx------------------------------------------------------------------|
A|--0xxxxx------------------------------------------------------------------|
D|--0xxxxx------------------------------------------------------------------|Play until chorus

Chorus:

Gtr Distorted
[ Tab from: http://www.guitartabs.cc/tabs/s/scott_stapp/justify_tab_ver_2.html ]
      I do not..     ..Justify..   live..my life
e|---------------------------------------------------------------------------|
B|---------------------------------------------------------------------------|
G|---------------------------------------------------------------------------|
D|---0-0-0-0-----------3-3-3-3------8-8-8-8-----5555xxxx---------------------|
A|---0-0-0-0-----------3-3-3-3------8-8-8-8-----5555xxxx---------------------|
D|---0-0-0-0-----------3-3-3-3------8-8-8-8-----5555xxxx---------------------|Repeat 2x

Verse 2 (Repeat Intro again 5 times for verse two. If you want, distort it.)

Chorus again repeat 2x (Still working on the secondary background electric on the second 
last chorus.)

Bridge (Play the intro 3x)

Then just do the chorus 3x, and end with this.

e|---------------------------------------------------------------------------|
B|---------------------------------------------------------------------------|
G|---------------------------------------------------------------------------|
D|---0-----------------------------------------------------------------------|
A|---0-----------------------------------------------------------------------|
D|---0-----------------------------------------------------------------------|

Hope you all enjoy this. It's a really good song. This is actually my first TAB. Sorry 
I couldn't tab the background electric guitar in the chorus'. There are alot of electric 
effects in this song. I know that it's not 100% accurate, but it's somewhere close.


| /  slide up
| \  slide down
| h  hammer-on
| p  pull-off
| ~  vibrato
| +  harmonic
| x  Mute note
===============================================================================