Scott Stapp - Fight Song Chords & Tabs

 

Fight Song Chords & Tabs

Scott Stapp Chords & Tabs

Version: 1 Type: Bass Tab

Fight Song Bass Tab

Intro-0.00- 0.10

G--------------------------------------------------------|
D------5-----------------5-----567-----------------------|
A----56--6---5H65------56--6-----------------------------|   X4
D 0-----------------0------------------------------------|

G----
D----
A----
D-0--

Verse 1 0.36- 1.07

G------------------------------|
D------------------------------|
A------------------------------|  X6
D-00---00---00---00---12-------|

Pre-Chrous 1.08- 1.19

G-------------------------------------------------------|
D-------------------------------------------------------|
A-----------1------------1------------1-----------------|
D-0-1-0-3-12---0-1-0-3-12---0-1-0-3-12---0-1-0-3-12-----|

Chrous 1.20- 1.28

G------------------------------------------------------|
D------------------------------------------------------|
A--------------------66------------8-------6655--------|
D-1----11--1-1----11----3----33--3---------------------|

Chrous 2  1.29- 1.38

G--------------------------------------------------------|
D------5-----------------5-----567-----------------------|
A----56--6---5H65------56--6-----------------------------|   X2
D 0-----------------0------------------------------------|

Verse 2 1.39- 2.10

G------------------------------|
D------------------------------|
A------------------------------|  X6
D-00---00---00---00---12-------|

Pre-Chrous 2.11- 2.20

G-------------------------------------------------------|
D-------------------------------------------------------|
A-----------1------------1------------1-----------------|
D-0-1-0-3-12---0-1-0-3-12---0-1-0-3-12---0-1-0-3-12-----|

Chorus 2.20- 2.31
[ Tab from: http://www.guitartabs.cc/tabs/s/scott_stapp/fight_song_btab.html ]
G------------------------------------------------------|
D------------------------------------------------------|
A--------------------66------------8-------6655--------|
D-1----11--1-1----11----3----33--3---------------------|

Chorus 2  2.31- 2.40

G--------------------------------------------------------|
D------5-----------------5-----567-----------------------|
A----56--6---5H65------56--6-----------------------------|   X2
D 0-----------------0------------------------------------|

Breakdown 2.41- 3.11

G------------------------------------------------------------|
D------------------------------------------------------------|
A------------------------------------------------------------|
D-0-------------1---------------3--------------5-------------|

G-------------------------------|
D-------------------------------|
A-------------------------------|
D-1-------------3-------------5-|

Breakdown 2  3.12- 3.22

G-------------------------------------------------------|
D-------------------------------------------------------|
A-----------1------------1------------1-----------------|
D-0001000312---0001000312---0001000312---0001000312-----|

Chorus 3.23- 3.32

G------------------------------------------------------|
D------------------------------------------------------|
A--------------------66------------8-------6655--------|
D-1----11--1-1----11----3----33--3---------------------|

Chorus 2   3.33- 3.53

G--------------------------------------------------------|
D------5-----------------5-----567-----------------------|
A----56--6---5H65------56--6-----------------------------|   X4
D 0-----------------0------------------------------------|

End 3.53- 4.05

G------------------------------------------------------|
D------------------------------------------------------|
A-----------1------------1------------1----------------|
D-0001000312---0001000312---0001000312---0-------------|