Scott Kelly - In My World Chords & Tabs

 

In My World Chords & Tabs

Scott Kelly Chords & Tabs

Version: 1 Type: Chords 0 ratings
1 star 2 stars 3 stars 4 stars 5 stars
comments

In My World Chords

   
In My World - Scott Kelly
off of "The Wake"
Intro
G Em G Em
G              Em  G       Em  G               Em   G                Em
I've stood within,  a vision,  Blinded by my heart, My mind stays numb
A5     G A5  Riff1            G          Em
The Weather, Never Changes,   In my World
G                    Em  G             Em  G              Em G            Em
It's ringing in my Ears, I'm in it's wake, It carries me to, an outer shore
A5     G A5   Riff1          C9         Asus4         C9   Asus4       C9
The Weather, Never Changes,  The Ocean, is the only thing, that ever brought
     Em7  C9        Asus4           C9       Asus4         C9     Em7
me peace, It washed the blood from my hands, It bridges me to the sun,
G         Em G          Em
In my world, In my world,
C      B/G    G        F#/D     C   B/G     G     F#/D
It never Spoke through you, I never felt the change
[ Tab from: http://www.guitartabs.cc/tabs/s/scott_kelly/in_my_world_crd.html ]
Here's basically how he plays the main G to Em part of the song
e-----3-3---------3-3-----------3-3-3---3-\-|
B-----3-3---3-----3-3-----------0-0-0---0---|
G---0-0-0-0-0---0-0-0---------0-0-0-0---0---|
D-0-0-0-0-0-0-0-0-0-0-0-0-0-2-2-2-2-2---2---| Etc.
A-2-2-----2---2-2-----0-0-0-2-2-----0h2-2---|
E-3-----------3-------2-2-0-0-----------0---|
 G                         Em

Riff 1
e-----------------------\-|
B-------------------------|
G-------------------------|
D-----0-------0-----------|
A-0h2-----0h2---0h2p0-----|
E---------------------3---|

How to play the B section, you can either just play the C9, Asus4 and Em7 normally 
or you can play this
e---------------\  e-----------0-0-\  e-----------0---0-\-| After the pull off
B---0-3p0-0-0-0-   B---0-3p0-0-0-0-   B-----3p0-0-0---0---|  the tab I show is
G-0-0-0---0-0-0-   G-2-2-2---2-2-2-   G---0-0---0-0-0-0---|  is just a guideline
D-2-2-2---2-2-2-   D-2-2-2---2-2-2-   D-2-2-2---2-2-2-2---|
A-3-3-3---3-3-3-   A-0-0-0---0-0-0-   A-2-2-2---2-2-2-2---|
E---------------/  E---0-0---0-0---/  E-0-0-0---0---0-----|
 C9                 Asus4              Em7

Outro picking
e-----------------------------------------------------------------\-|
B-------------------------------------------------------------------|
G-------------------------------------------------------------------|
D-----5-----5---5-----5-----5---5-----0-----0---0-----0-----0---0---|
A---7-----7---------5-----5---------2-----2---------0-----0---------|
E-8-----8-----8---7-----7-----7---3-----3-----3---2-----2-----2-----|
  C               B/G             G               F#/D

Pretty much all there, Thanks again
Comments