Scorpions - Yellow Butterfly Chords & Tabs

 

Yellow Butterfly Chords & Tabs

Scorpions Chords & Tabs

Version: 1 Type: Tab 0 ratings
1 star 2 stars 3 stars 4 stars 5 stars
comments

Yellow Butterfly Tab

Yellow Butterfly                         Shenker/Frederiksen/Meine
Scorpions
Eye to eye
Mirsha  mirsha_joker@hotmail.com


Electric w/distor   Intro
--------------------------------------------------------------
--------------------------------------------------------------
---------------------------4^(5)------------------------4^(5)-
---------------------------3^(4)------------------------3^(4)-
--------------------------------------------------------------
-----1-1-1-1-1-1-1-1-1-1-1--------1-1-1-1-1-1-1-1-1-1-1-------
p.m.......................        .....................


The big riff
e-------------------------------------------------------------------------------------
B-------------------------------------------------------------------------------------
G-------------------------------------------------------------------------------------
D-------------------------------------------------------------------------------------
A--------2~-----3~-----5~-5--3-2--3-2-0--------------2~-----3~-5----3-2---3-2-0-------
E----0-0----0-0----0-0------------------3-2-0----0-0----0-0---------------------3-2-0-
p.m.....    ...    ...                           ...    ...

[ Tab from: http://www.guitartabs.cc/tabs/s/scorpions/yellow_butterfly_tab.html ]
e---------------------------------------------------------------------
B---------------------------------------------------------------------
G---------------------------------------------------------------------
D---------------------------------------------------------------2-----
A--------2~-----3~-----5~--5--3-2--3-2-0---------------2----3---2-----
E----0-0----0-0-----0-0-------------------3-2-0----0-0---0-0----0-----
     ...    ...     ...                           ...   ... 

Acoustic      Verse
----0------0----------------------0---0-----------------------0--0-------------------
----3----------3------------------3---3---3-1-0---------------3--3---3-1-0-----------
----2--------2--------------------2---2---------2-5-4-2-0-----2--2---------2-5-4-2-0-
----2----2------------------------2---2-----------------------2--2-------------------
----0-----------------7^-----7----0---0-----------------------0--0-------------------
-------------------5/7---7-7---------------------------------------------------------
                                     in the temple.....



------0-------------------------------
------1-------------------------------
------2-------------------------------
------3-----4-4-4/5/9-7---------------
------3-----2-2-2/3/7-5---------------
--------------------------------------
 one more time....

---0--0-------------------------0---------------------3-3-3-3-3-3-3-----
---3--3--3-1-0------------3-----3---------------------3-3-3-3-3-3-3-----
---2--2--------2-5------2-------2---------------------0-0-0-0-0-0-0-----
---2--2-------------2h4---------2--4-4/5/9-7----------0-0-0-0-0-0-0-----
---0--0-------------------------0--2-2/3/7-5----------x-x-x-x-x-x-x-----
------------------------------------------------------3-3-3-3-3-3-3-----
  dancing in the wind...............................sjhe was still so close
Comments