Scorpions - Wind Of Change Chords & Tabs

 

Wind Of Change Chords & Tabs

Scorpions Chords & Tabs

Version: 1 Type: Tab 2 ratings
1 star 2 stars 3 stars 4 stars 5 stars
comments

Wind Of Change Tab

   
Scorpions
Wind of change 
  
Gtr I (E A D G B E) - 'Distortion Gtr 1'
Gtr II (E A D G B E) - 'Rhyth. Gtr. 1 (clean)'
Gtr III (E A D G B E) - 'Rhyth. Gtr. 2 (acoustic)'
Gtr IV (E A D G B E) - 'Strings (Synth. arr.)'
Gtr V (E A D G B E) - 'Distortion Gtr. 2 (Solo)'

 Intro
  Rock Ballad Q=76
  F                        Dm          F
 4/4
  Gtr IV
|-1----------------------|--1--------|-1----------------------------|
|-1----------------------|--3--------|-1----------------------------|
|-2----------------------|--2--------|-2----------------------------|
|-3----------------------|--0--------|-3----------------------------|
|------------------------|-----------|------------------------------|
|------------------------|-----------|------------------------------|
|
| Gtr I
| PM    PM|
|------------------------|-----------|------------------------------|
|---------------12-------|-----------|------------------12-12-------|
|----x-------10-12-10----|-----------|----x----------10-12-12p10----|
|-x--x-------10-12-10-12-|-----------|----x----------10-12-12p10-12-|
|-------8-10-------------|-----------|-------8-10s12----------------|
|------------------------|-10--------|------------------------------|


  Dm                         Am                Dm      Am7       G
 4/4                                                            2/4
|--1-----------------------|-0---------------|-1-------0-------|-3-------|
|--3-----------------------|-1---------------|-3-------1-------|-3-------|
|--2-----------------------|-2---------------|-2-------2-------|-0-------|
|--0-----------------------|-2---------------|-0-------2-------|-0-------|
|--------------------------|-----------------|-----------------|---------|
|--------------------------|-----------------|-----------------|---------|
|
|                                              Gtr II
|                                        ~
|--------------------------|-----------------|---1-------0-----|---------|
|-----------10h12----------|-----------------|-----3-------1---|---3-0---|
|-10--------10h12-10-------|----5h7-7p5--5---|-------2-------0-|-------0-|
|-----12-------12-10-12s10-|-7--7---7------7-|-0---------------|---------|
|--------------------------|-----------------|---------0-------|---------|
|--------------------------|-----------------|-----------------|-3-------|


 Verse 1
  C              Dm            C                 Dm      Am7
 4/4
|--0-----------|-1-----------|-0---------------|-1-------0-------|
|--1-----------|-3-----------|-1---------------|-3-------1-------|
|--0-----------|-2-----------|-0---------------|-2-------2-------|
|--2-----------|-0-----------|-2---------------|-0-------2-------|
|--------------|-------------|-----------------|-----------------|
|--------------|-------------|-----------------|-----------------|
|
|                Gtr I                           Gtr II
|-^0--(0)------|-------------|-----------------|---1-------0-----|
|-^1--(1)------|-------------|-----------------|-----3-------1---|
|-^0--(0)------|----x--x--x--|----x--x-x-x-x-x-|-------2-------0-|
|--------------|----x--x--x--|----x--x-x-x-x-x-|-0---------------|
|-^3--(3)------|-------------|-----------------|---------0-------|
|--------------|-------------|-----------------|-----------------|


  G         C              Dm           C
 2/4       4/4
|-3-------|--0-----------|-1----------|-0---------------|
|-3-------|--1-----------|-3----------|-1---------------|
|-0-------|--0-----------|-2----------|-0---------------|
|-0-------|--2-----------|-0----------|-2---------------|
|---------|--------------|------------|-----------------|
|---------|--------------|------------|-----------------|
|
|                               Gtr I
|                                          PM
|---------|-^0--(0)------|------------|-----------------|
|---3-0---|-^1--(1)------|------------|-----------------|
|-------0-|-^0--(0)------|---------x--|----x-------7p5--|
|---------|--------------|-------x----|----x---5s7------|
|---------|-^3--(3)------|------------|-----------------|
|-3-------|--------------|------------|-----------------|


  Dm          Am           G
                          2/4
  Gtr III
|--1----------0----------|-3-------|
|--3----------1----------|-3-------|
|--2----------2----------|-0-------|
|--0----------2----------|-0-------|
|------------------------|---------|
|------------------------|---------|
|
| Gtr I
|------------------------|---------|
|-----------------8s10s==|=8-------|
|-(5)---4s5-------7s=9s==|=7-------|
|-------6s7--------------|---------|
|------------------------|---------|
|------------------------|---------|
|
| Gtr II
|-----1---------0--------|---------|
|---------3----------1---|---3-0---|
|-----------2----------0-|-------0-|
|--0---------------------|---------|
|-------------0----------|---------|
|------------------------|-3-------|


 Interlude
  F                           Dm
 4/4
  | |                           |  |
  / /                           /  /

|-1-------------------------|---1-------------------|
|-1-------------------------|---3-------------------|
|-2-------------------------|---2-------------------|
|-3-------------------------|---0-------------------|
|---------------------------|-----------------------|
|---------------------------|-----------------------|
|
|                               ~~~~~~~~~~~~~
|---------------------------|-----------------------|
|------------------12-10----|-----------------------|
|----x----------10-12-10----|-----------------------|
|----x----------10-------12-|-(12)------(12)-(12)\--|
|-------x-10-12-------------|-----------------------|
|---------------------------|-----------------------|
|
|---------------------------|-----------------------|
|---------------------------|-----------------------|
|-0-------------------------|-----------------------|
|---------------------------|-----------------------|
|---------------------------|-----------------------|
|---------------------------|-----------------------|


  F
  | |
  / /

|-1----------------------------|
|-1----------------------------|
|-2----------------------------|
|-3----------------------------|
|------------------------------|
|------------------------------|
|
|------------------------------|
|------------------12-12p10----|
|----x--x-------10-12-12p10----|
|----x--x-------10----------12-|
|---------10s12----------------|
|------------------------------|


  Dm                         Am
   | |                         |  |
   / /                         /  /

|--1-----------------------|---0---------------------------|
|--3-----------------------|---1---------------------------|
|--2-----------------------|---2---------------------------|
|--0-----------------------|---2---------------------------|
|--------------------------|-------------------------------|
|--------------------------|-------------------------------|
|
|      ~~
|--------------------------|-------------------------------|
|-----------10h12-10-------|-------------------------------|
|-10--------10h12-10-------|-------10h12--(12)p10----------|
|-----12-------------12-10-|-(10)--10h12--(12)p10----10----|
|--------------------------|----------------------12----12-|
|--------------------------|-------------------------------|


                                   Verse 2
  Dm         Am           G         C
                         2/4       4/4
  | |        | |          | |        |   |  ||||||||
 

  Gtr IV
|-1----------0----------|-3-------|--0--------------|
|-3----------1----------|-3-------|--1--------------|
|-2----------2----------|-0-------|--0--------------|
|-0----------2----------|-0-------|--2--------------|
|-----------------------|---------|-----------------|
|-----------------------|---------|-----------------|
|
| Gtr I
|-----------------------|---------|-----------------|
|----------------8s10s==|=8-------|-----------------|
|-----7s10-------7s=9s==|=7-------|-----------------|
|-----7s10--------------|---------|-----------------|
|-----------------------|---------|-----------------|
|-----------------------|---------|-----------------|
|
| Gtr II
|---1----------0--------|---------|-^0--(0)---------|
|--------3----------1---|---3-0---|-^1--(1)---------|
|----------2----------0-|-------0-|-^0--(0)---------|
|-0---------------------|---------|-----------------|
|------------0----------|---------|-^3--(3)---------|
|-----------------------|-3-------|-----------------|


  Dm            C                 Dm         Am
  | ||||||||||  | ||||||| | | |    |    | | ||   || | |
  
|-1-----------|-0---------------|--1---------0---------|
|-3-----------|-1---------------|--3---------1---------|
|-2-----------|-0---------------|--2---------2---------|
|-0-----------|-2---------------|--0---------2---------|
|-------------|-----------------|----------------------|
|-------------|-----------------|----------------------|
|
|-------------|-----------------|----------------------|
|-------------|-----------------|----------------------|
|-------------|---------5s7s5s7-|-(7)------------------|
|-------------|---------5s7s5s7-|-(7)------------------|
|-------------|-----------------|----------------------|
|-------------|-----------------|----------------------|
|
|-------------|-----------------|-----1--------0-------|
|-------------|-----------------|-------3---------1----|
|-------------|-----------------|---------2---------0--|
|-------------|-----------------|--0-------------------|
|-------------|-----------------|------------0---------|
|-------------|-----------------|----------------------|


  G            C                       Dm
 2/4          4/4
  |   || || |   | | |  | |  |  || |||  | | | || |  || || |
  

|-3----------|--0--------------------|-1------------------|
|-3----------|--1--------------------|-3------------------|
|-0----------|--0--------------------|-2------------------|
|-0----------|--2--------------------|-0------------------|
|------------|-----------------------|--------------------|
|------------|-----------------------|--------------------|
|
|                                      PM--|        PM-|
|------------|-----------------------|--------------------|
|------------|-----------------------|--------------------|
|------------|-----------------------|-7-7-7--7-----7-----|
|------------|-----------------------|-7-7-7--7-----7-----|
|------------|-----------------------|-----------5-----5--|
|------------|-----------------------|--------------------|
|
|------------|-^0--(0)--(0)----------|--------------------|
|---3--0-----|-^1--(1)--(1)-----1----|--------------------|
|---------0--|-^0--(0)--(0)-----0----|--------------------|
|------------|-----------------------|--------------------|
|------------|-^3--(3)--(3)--3-------|--------------------|
|-3----------|-----------------------|--------------------|


  C
  | || ||  |  | |   |  |   |
  

|-0----------------------------|
|-1----------------------------|
|-0----------------------------|
|-2----------------------------|
|------------------------------|
|------------------------------|
|
|------------------------------|
|------------------------------|
|-5--5-------------------------|
|-5--5--------------------10---|
|-------x-12-10-x---()-|
|------------------------------|
|
|------------------------------|
|------------------------------|
|------------------------------|
|------------------------------|
|------------------------------|
|------------------------------|


  Dm                   Am          G5
     |            || | |   || | |  |   ||   || ||||||
     

|----1-----------------0---------|-3------------------|
|----3-----------------1---------|-3------------------|
|----2-----------------2---------|-0------------------|
|----0-----------------2---------|-0------------------|
|--------------------------------|--------------------|
|--------------------------------|--------------------|
|
|--------------------------------|--------------------|
|--------------------------------|--------------------|
|--------------------------------|--------------------|
|--(10)----12--------------------|--------------------|
|-()-()------------------|--------------------|
|--------------------------------|--------------------|
|
|---------------1--------0-------|--------------------|
|------------------3--------1----|---3--0-------------|
|--------------------2--------0--|--------0--0--------|
|----0---------------------------|--------------------|
|----------------------0---------|--------------------|
|--------------------------------|-3------------------|


 Chorus
  C        G5         Dm       G5         C        G5
  | ||| || | ||| ||   | ||| || | ||| ||   | ||| || | ||| ||
  
|-0--------3--------|-1--------3--------|-0--------3---------|
|-1--------3--------|-3--------3--------|-1--------3---------|
|-0--------0--------|-2--------0--------|-0--------0---------|
|-2--------0--------|-0--------0--------|-2--------0---------|
|-------------------|-------------------|--------------------|
|-------------------|-------------------|--------------------|
|
|-------------------|-------------------|--------------------|
|-------------------|-------------------|--------------------|
|-5-----------------|-7-----------------|-5------------------|
|-5--------5--------|-7--------5--------|-5--------5---------|
|-3--------5--------|-5--------5--------|-3--------5---------|
|----------3--------|----------3--------|----------3---------|
|
|-----0--0-----3--3-|-----1--1-----3--3-|-----0--0-----3--3--|
|-----1--1-----3--3-|-----3--3-----3--3-|-----1--1-----3--3--|
|-----0--0-----0--0-|-----2--2-----0--0-|-----0--0-----0--0--|
|--------------0--0-|-0---0--0-----0--0-|--------------0--0--|
|-3---3--3----------|-------------------|-3---3--3-----------|
|----------3---3--3-|----------3---3--3-|----------3---3--3--|


  Dm       G5         Am        F           G5
  | ||| || | ||| ||   | | || | || | || | |  | | || | ||
  

|-1--------3--------|-0---------1---------|-3--------------|
|-3--------3--------|-1---------1---------|-3--------------|
|-2--------0--------|-2---------2---------|-0--------------|
|-0--------0--------|-2---------3---------|-0--------------|
|-------------------|---------------------|----------------|
|-------------------|---------------------|----------------|
|
|-------------------|---------------------|----------------|
|-------------------|---------------------|----------------|
|-7-----------------|-2-------------------|----------------|
|-7--------5--------|-2---------3---------|-5--------------|
|-5--------5--------|-0---------3---------|-5--------------|
|----------3--------|-----------1---------|-3--------------|
|
|-----1--1-----3--3-|---------------------|-----------3----|
|-----3--3-----3--3-|------1---------1----|--------3--3----|
|-----2--2-----0--0-|--------2----2----2--|------0---------|
|-0---0--0-----0--0-|---2-------3---------|---0------------|
|-------------------|-0-------------------|----------------|
|----------3---3--3-|---------------------|-3--------------|


                                      Verse 3
  C
  |  | |   | | | |    |    |  || ||||   |  ||||||||||||
  
  Gtr IV
|-0----------------|-(0)-------------|-(0)-------------|
|-1----------------|-(1)-------------|-(1)-------------|
|-0----------------|-(0)-------------|-(0)-------------|
|-2----------------|-(2)-------------|-(2)-------------|
|------------------|-----------------|-----------------|
|------------------|-----------------|-----------------|
|
| Gtr II
|-0----0-----------|-^0---(0)--------|-(0)-------------|
|-1----1-------3s1-|-^1---(1)--------|-(1)-------------|
|-0----0-----------|-^0---(0)--------|-(0)-------------|
|------------5-----|-----------------|-----------------|
|-3----3-3s5-------|-^3---(3)--------|-(3)-------------|
|------------------|-----------------|-----------------|


  Dm             C                Dm        Am
  | |||||||||||  | ||||||| || ||  | | || | || | || | |
  

  Gtr IV
|-1------------|-0--------------|-1---------0----------|
|-3------------|-1--------------|-3---------1----------|
|-2------------|-0--------------|-2---------2----------|
|-0------------|-2--------------|-0---------2----------|
|--------------|----------------|----------------------|
|--------------|----------------|----------------------|
|
| Gtr I
|--------------|----------------|----------------------|
|--------------|----------------|----------------------|
|--------------|----------------|----------------------|
|--------------|------------x---|----------------------|
|--------------|---------x------|----------------------|
|--------------|----------------|----------------------|
|
| Gtr II
|--------------|----------------|---1---------0--------|
|--------------|----------------|------3---------1-----|
|--------------|----------------|--------2---------0---|
|--------------|----------------|-0--------------------|
|--------------|----------------|-----------0----------|
|--------------|----------------|----------------------|


  G5          C                    Dm
 2/4         4/4
  | | || | |   | || |  ||||||||||  | ||||||||||||

  Gtr IV
|-3---------|--0-----------------|-1-------------|
|-3---------|--1-----------------|-3-------------|
|-0---------|--0-----------------|-2-------------|
|-0---------|--2-----------------|-0-------------|
|-----------|--------------------|---------------|
|-----------|--------------------|---------------|
|
| Gtr II
|-----------|-^0---(0)-----------|---------------|
|---3--0----|-^1---(1)-----------|---------------|
|--------0--|-^0---(0)-----------|---------------|
|-----------|--------------------|---------------|
|-----------|-^3---(3)-----------|---------------|
|-3---------|--------------------|---------------|


  C                            Dm          Am             G5
  |   |||  ||    |  | | |||||  | | |  | | || | |   | | |  | | || | || ||||||
 
[ Tab from: http://www.guitartabs.cc/tabs/s/scorpions/wind_of_change_tab.html ]
  Gtr IV
|-0--------------------------|-1-----------0------------|-3-------------------|
|-1--------------------------|-3-----------1------------|-3-------------------|
|-0--------------------------|-2-----------2------------|-0-------------------|
|-2--------------------------|-0-----------2------------|-0-------------------|
|----------------------------|--------------------------|---------------------|
|----------------------------|--------------------------|---------------------|
|
| Gtr I
|   PM
|----------------------------|--------------------------|---------------------|
|----------------------------|------5s6---------8s10s===|=8-------------------|
|---5-------7b8r(7)p5--------|------4s5---------7s=9s===|=7-------------------|
|-------7-------------7------|--------------------------|---------------------|
|----------------------------|--------------------------|---------------------|
|----------------------------|--------------------------|---------------------|
|
| Gtr II
|----------------------------|---1-----------0----------|---------------------|
|----------------------------|--------3------------1----|---3--0--------------|
|----------------------------|----------2------------0--|--------0--0---------|
|----------------------------|-0------------------------|---------------------|
|----------------------------|-------------0------------|---------------------|
|----------------------------|--------------------------|-3-------------------|


   Chorus
    C        G5         Dm       G5         C        G5
    | ||| || | ||| ||   | ||| || | ||| ||   | ||| || | ||| ||
    

||--0--------3--------|-1--------3--------|-0--------3--------|
||o-1--------3--------|-3--------3--------|-1--------3--------|
||--0--------0--------|-2--------0--------|-0--------0--------|
||--2--------0--------|-0--------0--------|-2--------0--------|
||o-------------------|-------------------|-------------------|
||--------------------|-------------------|-------------------|
|
||--------------------|-------------------|-------------------|
||o-------------------|-------------------|-------------------|
||--5-----------------|-7-----------------|-5-----------------|
||--5--------5--------|-7--------5--------|-5--------5--------|
||o-3--------5--------|-5--------5--------|-3--------5--------|
||-----------3--------|----------3--------|----------3--------|
|
||------0--0-----3--3-|-----1--1-----3--3-|-----0--0-----3--3-|
||o-----1--1-----3--3-|-----3--3-----3--3-|-----1--1-----3--3-|
||------0--0-----0--0-|-----2--2-----0--0-|-----0--0-----0--0-|
||---------------0--0-|-0---0--0-----0--0-|--------------0--0-|
||o-3---3--3----------|-------------------|-3---3--3----------|
||-----------3---3--3-|----------3---3--3-|----------3---3--3-|


  Dm       G5         Am        F           G5
  | ||| || | ||| ||   | | || | || | || | |  | | || | ||
  
|-1--------3--------|-0---------1---------|-3---------------||
|-3--------3--------|-1---------1---------|-3--------------o||
|-2--------0--------|-2---------2---------|-0---------------||
|-0--------0--------|-2---------3---------|-0---------------||
|-------------------|---------------------|----------------o||
|-------------------|---------------------|-----------------||
|
|-------------------|---------------------|-----------------||
|-------------------|---------------------|----------------o||
|-7-----------------|-2-------------------|-----------------||
|-7--------5--------|-2---------3---------|-5---------------||
|-5--------5--------|-0---------3---------|-5--------------o||
|----------3--------|-----------1---------|-3---------------||
|
|-----1--1-----3--3-|---------------------|-----------3-----||
|-----3--3-----3--3-|------1---------1----|--------3--3----o||
|-----2--2-----0--0-|--------2----2----2--|------0----------||
|-0---0--0-----0--0-|---2-------3---------|---0-------------||
|-------------------|-0-------------------|----------------o||
|----------3---3--3-|---------------------|-3---------------||


 Bridge
  A5              G5                         A5
  Gtr IV
|---------------|--3-----------------------|---------------|
|---------------|--3-----------------------|---------------|
|-2-------------|--0-----------------------|-2-------------|
|-2-------------|--0-----------------------|-2-------------|
|-0-------------|--------------------------|-0-------------|
|---------------|--------------------------|---------------|
|
| Gtr II
|---------------|-^3--(3)--(3)-----5-----3-|---------------|
|---------------|-^3--(3)--(3)-3s5---5s3---|---------------|
|-2--2----0h=2--|-^0--(0)--(0)-------------|-2--2----0h=2--|
|-2--2----2-(2)-|-^0--(0)--(0)-------------|-2--2----2-(2)-|
|-0--0----0-(0)-|--------------------------|-0--0----0-(0)-|
|---------------|-^3--(3)--(3)-------------|---------------|


  G5               C               Dm
|--3-------------|-0-------------|-1-----------------|
|--3-------------|-1-------------|-3-----------------|
|--0-------------|-0-------------|-2-----------------|
|--0-------------|-2-------------|-0-----------------|
|----------------|---------------|-------------------|
|----------------|---------------|-------------------|
|
|-^3--(3)----3-3-|---------------|-------------------|
|-^3--(3)----3-3-|-5--5--5-5-5-5-|-6--6-6-6-6-6-6-x--|
|-^0--(0)----0-0-|-5--5--5-5-5-5-|-7--7-7-7-7-7-7-x--|
|-^0--(0)----0-0-|-5--5--5-5-5-5-|-7--7-7-7-7-7-7-x--|
|----------------|-3--5--3-3-3-3-|-5--5-5-5-5-5-5-x--|
|-^3--(3)----3-3-|---------------|-------------------|


  E
  Gtr IV
|-------------------------------------------------------------------|
|-9-----------------------------------------------------------------|
|-9-----------------------------------------------------------------|
|-9-----------------------------------------------------------------|
|-7-----------------------------------------------------------------|
|-------------------------------------------------------------------|
|
| Gtr I
|-------------------------------------------------------------------|
|------12b13==(12)r(12)---(12)-------12b13==(12)r(12)b13==(12)r(12)-|
|---14----------------------------14--------------------------------|
|------------------------------14-----------------------------------|
|-------------------------------------------------------------------|
|-------------------------------------------------------------------|
|
| Gtr II
|-------------------------------------------------------------------|
|-9-------------9-------9---9---9-----9-------9---------------------|
|-9-------------9-------9---9---9-----9-------9---------------------|
|-9-------------9-------9---9---9-----9-------9---------------------|
|-7-------------7-------7---7---7-----7-------7---------------------|
|-------------------------------------------------------------------|


                                                 Guitar Solo
                                                  F(type 2)               G
                                                  Gtrs II, III
                                                    |    |  |  |     |  |  |      |  |  |    |   |
                                                 
|-----------------------------------------------|---1----------------------3-----------------------|
|-(9)-------------------------------------------|---1----------------------3-----------------------|
|-(9)-------------------------------------------|---2----------------------0-----------------------|
|-(9)-------------------------------------------|---3----------------------0-----------------------|
|-(7)-------------------------------------------|--------------------------------------------------|
|-----------------------------------------------|--------------------------------------------------|
|
|  ~~~~~
|-----------------------------------------------|--------------------------------------------------|
|-15b17--------10-10-12-10h12p10----10----------|--------------------------------------------------|
|--------------------------------12------12b14==|=(12)-(12)r=(12)-12-9-12-12b14r(12)--(12)-9--10---|
|-----------------------------------------------|--------------------------------------------------|
|-----------------------------------------------|--------------------------------------------------|
|-----------------------------------------------|--------------------------------------------------|
|
|-----------------------------------------------|--------------------------------------------------|
|--9----9-9-9---9--9--9--9--------9----9--------|--------------------------------------------------|
|--9----9-9-9---9--9--9--9--------9----9--------|--------------------------------------------------|
|--9----9-9-9---9--9--9--9--------9----9--------|--------------------------------------------------|
|--7----7-7-7---7--7--7--7--------7----7--------|--------------------------------------------------|
|-----------------------------------------------|--------------------------------------------------|


  E                         Am(type 2)
   |      |    |  |    |  | | ||| |  |
   
  Gtr IV
|---------------------------0----------|
|--9------------------------0----------|
|--9------------------------1----------|
|--9------------------------2----------|
|--7-----------------------------------|
|--------------------------------------|
|
| Gtr I
|                           ~
|--------------------------------------|
|-----------------------------------10-|
|-10b12r(10)p9p=7-7b9r(7)-5-7-----9----|
|--------------------------------------|
|--------------------------------------|
|--------------------------------------|
|
| Gtr V
|--------------------------------------|
|-----------------------------------13-|
|--------------------------------14----|
|--------------------------------------|
|--------------------------------------|
|--------------------------------------|


  F(type 2)                             G                          Am           Am
   |               |    |        |  | |  | |  |    |  ||      |    |||||| | |    |
   /// / o    /

|--1-------------------------------------3--------------|-----0---------------------------|
|--1-------------------------------------3--------------|-----1---------------------------|
|--2-------------------------------------0--------------|-----2---------------------------|
|--3-------------------------------------0--------------|-----2---------------------------|
|-------------------------------------------------------|---------------------------------|
|-------------------------------------------------------|---------------------------------|
|
|                                                  ~~~~       ~~~~~
|------------------------------------12-----------------|---------------------------------|
|-12b13r(12)b13==(12)r(12)b13==(12)-----12r=(12)-(12)---|-12s13---------------------------|
|-------------------------------------------------------|---------------------------------|
|-------------------------------------------------------|---------------------------------|
|-------------------------------------------------------|---------------------------------|
|-------------------------------------------------------|---------------------------------|
|
|                                                  ~~~~~~~~~~~~~~~~
|------------------------------------15-----------------|----15b17-------15--13-12h13p12--|
|-15b17r(15)b17==(15)r(15)b17==(15)-----15r=(15)-(15)---|---------------------------------|
|-------------------------------------------------------|---------------------------------|
|-------------------------------------------------------|---------------------------------|
|-------------------------------------------------------|---------------------------------|
|-------------------------------------------------------|---------------------------------|


  F(type 2)     G         E               Am(type 2)
    |  ||| |  |  | |||||   | || |    ||    | || |    ||
    
|---1------------3------|------------------0-----------|
|---1------------3------|--9---------------1-----------|
|---2------------0------|--9---------------2-----------|
|---3------------0------|--9---------------2-----------|
|-----------------------|--7---------------------------|
|-----------------------|------------------------------|
|
|                ~~                        ~~~~~~~~~~~~~
|-----------------------|------------------------------|
|--10-----10-13-12------|-12---13-15---15s17-----------|
|-----------------------|------------------------------|
|---7------7-10--9------|--9---10-12---12s14-----------|
|-----------------------|------------------------------|
|-----------------------|------------------------------|
|
|   ~~~~
|-(12)------------------|------------------------------|
|-----------------------|------------------------------|
|-----------------------|------------------------------|
|-----------------------|----------------------12-14---|
|-----------------------|------------------------------|
|-----------------------|------------------------------|


  Dm
    |   ||    | || | ||| | ||
   
|---1-------------------------|
|---3-------------------------|
|---2-------------------------|
|---0-------------------------|
|-----------------------------|
|-----------------------------|
|
|~~~~~~~
|-----------------------------|
|-(17)\---17-18---17----15----|
|-----------------------------|
|-(14)\---14-15---14----12----|
|-----------------------------|
|-----------------------------|
|
|-----------------------------|
|-----------------------------|
|-----------------------------|
|--12-----14s15---14----12----|
|-----------------------------|
|-----------------------------|


                                   Chorus
  E                                 C        G5         Dm       G5
                                    Gtr III
   |    |  |      |     |    |||    | ||| || | ||| ||   | ||| || | ||| ||
   
|-------------------------------||--0--------3--------|-1--------3---------|
|--9----------------------------||o-1--------3--------|-3--------3---------|
|--9----------------------------||--0--------0--------|-2--------0---------|
|--9----------------------------||--2--------0--------|-0--------0---------|
|--7----------------------------||o-------------------|--------------------|
|-------------------------------||--------------------|--------------------|
|
|                       ~~~~~
|----------------------22b24----||--------------------|--------------------|
|-19b21--(19)-19-17-19-19b21----||o-------------------|--------------------|
|-------------------------------||--5-----------------|-7------------------|
|-------------------------------||--5--------5--------|-7--------5---------|
|-------------------------------||o-3--------5--------|-5--------5---------|
|-------------------------------||-----------3--------|----------3---------|
|
|                                   Gtr II
|                       ~~~~~
|-17b19--(17)-17-15-17-17b19----||------0--0-----3--3-|-----1--1-----3--3--|
|-------------------------------||o-----1--1-----3--3-|-----3--3-----3--3--|
|-------------------------------||------0--0-----0--0-|-----2--2-----0--0--|
|-------------------------------||---------------0--0-|-0---0--0-----0--0--|
|-------------------------------||o-3---3--3----------|--------------------|
|-------------------------------||-----------3---3--3-|----------3---3--3--|


  C        G5         Dm       G5         Am        F
  | ||| || | ||| ||   | ||| || | ||| ||   | | || | || | || | |
 

|-0--------3--------|-1--------3--------|-0---------1----------|
|-1--------3--------|-3--------3--------|-1---------1----------|
|-0--------0--------|-2--------0--------|-2---------2----------|
|-2--------0--------|-0--------0--------|-2---------3----------|
|-------------------|-------------------|----------------------|
|-------------------|-------------------|----------------------|
|
|-------------------|-------------------|----------------------|
|-------------------|-------------------|----------------------|
|-5-----------------|-7-----------------|-2--------------------|
|-5--------5--------|-7--------5--------|-2---------3----------|
|-3--------5--------|-5--------5--------|-0---------3----------|
|----------3--------|----------3--------|-----------1----------|
|
|-----0--0-----3--3-|-----1--1-----3--3-|----------------------|
|-----1--1-----3--3-|-----3--3-----3--3-|------1---------1-----|
|-----0--0-----0--0-|-----2--2-----0--0-|--------2----2----2---|
|--------------0--0-|-0---0--0-----0--0-|---2-------3----------|
|-3---3--3----------|-------------------|-0--------------------|
|----------3---3--3-|----------3---3--3-|----------------------|


  1.                   2.
  G5                    G5
  | | || | || ||||||    |               |
  / / // / // //////    /               /

|-3------------------||-3------------|-(3)----|
|-3-----------------o||-3------------|-(3)----|
|-0------------------||-0------------|-(0)----|
|-0------------------||-0------------|-(0)----|
|-------------------o||--------------|--------|
|--------------------||--------------|--------|
|
|--------------------||--------------|--------|
|-------------------o||--------------|--------|
|--------------------||--------------|--------|
|-5------------------||-5------------|--------|
|-5-----------------o||-5------------|--------|
|-3------------------||-3------------|--------|
|
|-----------3--------||---------3----|--------|
|--------3--3-------o||-------3-3----|--------|
|------0-------------||-----0--------|--------|
|---0----------------||---0----------|--------|
|-------------------o||--------------|--------|
|-3------------------||-3------------|--------|


 Outro
  F                           Dm            F
  Gtr IV
|-1-------------------------|---1---------|-1-----------------------------|
|-1-------------------------|---3---------|-1-----------------------------|
|-2-------------------------|---2---------|-2-----------------------------|
|-3-------------------------|---0---------|-3-----------------------------|
|---------------------------|-------------|-------------------------------|
|---------------------------|-------------|-------------------------------|
|
| Gtr I
|                                               PM
|---------------------------|-------------|-------------------------------|
|------------------12-10----|-------------|-------------------12-12p10----|
|---------------10-12-10----|-------------|----------------10-12-12p10----|
|----x----------10-------12-|-(12)--------|----10----------10----------12-|
|-x-----x-10s12-------------|-------------|-x------x-10s12----------------|
|---------------------------|-------------|-------------------------------|


  Dm                      Am                     Dm
|--1--------------------|-0--------------------|--1-----------|-(1)----*|
|--3--------------------|-1--------------------|--3-----------|-(3)----*|
|--2--------------------|-2--------------------|--2-----------|-(2)----*|
|--0--------------------|-2--------------------|--0-----------|-(0)----*|
|-----------------------|----------------------|--------------|--------*|
|-----------------------|----------------------|--------------|--------*|
|
|                                                Gtr II
|        ~~
|-----------------------|----------------------|-^1--(1)------|-(1)----*|
|-----------10h12-10----|----------------------|-^3--(3)------|-(3)----*|
|-10--------10h12-10----|----5-7-5-5---5b5.5---|-^2--(2)------|-(2)----*|
|-------12-----------12s|=7--5-------5-------7-|-^0--(0)------|-(0)----*|
|-----------------------|----------------------|--------------|--------*|
|-----------------------|----------------------|--------------|--------*|



Comments