Scorpions - When The Smoke Is Going Down Chords & Tabs

 

When The Smoke Is Going Down Chords & Tabs

Scorpions Chords & Tabs

Version: 4 Type: Tab 0 ratings
1 star 2 stars 3 stars 4 stars 5 stars
comments

When The Smoke Is Going Down Tab

When The Smoke Is Going Down

Solo:
----------------8---------|---------8--10/(12)\10------|-
---8--8--10/11------------|--10/11-----------------10--|-
-------------------9--10--|----------------------------|-
--------------------------|----------------------------|-
--------------------------|----------------------------|-
--------------------------|----------------------------|-


---------------15--------------|----------15/(17)\15----------|-
---15--17--18------17----------|--17--18--------------15--17--|-
-----------------------17------|------------------------------|-
---------------------------14--|------------------------------|-
-------------------------------|------------------------------|-
-------------------------------|------------------------------|-

[ Tab from: http://www.guitartabs.cc/tabs/s/scorpions/when_the_smoke_is_going_down_tab_ver_4.html ]
                         (   approx.   )
                         (1/4 step bend)
---17--18--20--22--20--22-----20--22----|--10--------|-
----------------------------------------|----10------|-
----------------------------------------|------10----|-
----------------------------------------|--------12--|-
----------------------------------------|------------|-
----------------------------------------|------------|-


---20--20--20--20--|--17/(18)\17------------------------------------
-------------------|--------------18--20--18--20--20/(22)--(22)\20--
-------------------|------------------------------------------------
-------------------|------------------------------------------------
-------------------|------------------------------------------------
-------------------|------------------------------------------------


---------------|----------------------|-
---18--17--18--|--18/(20)\18--17------|-
---------------|------------------19--|-
---------------|----------------------|-
---------------|----------------------|-
---------------|----------------------|-
Comments