Scorpions - Well Burn The Sky Chords & Tabs

 

Well Burn The Sky Chords & Tabs

Scorpions Chords & Tabs

Version: 1 Type: Tab 0 ratings
1 star 2 stars 3 stars 4 stars 5 stars
comments

Well Burn The Sky Tab

-----------------------THAT DISCLAIMER THING--------------------------
| This tablature is only my interpretation of this song.  It is      |
| certainly not perfect, and I have added a bit of my own flare      |
| to the song.  But this should give you the basic idea of the       |
| song.  You may only use this file for private study, scholarship,  |
| or research.                                                       |
----------------------------------------------------------------------


"We'll Burn The Sky (Live)" from the Scorpions album Tokyo Tapes
Transcription by Chad Armstrong
Send any corrections or suggestions to charon@cs.montana.edu

RHYTHM 1 
e:-------4-----------7----------------------------|
b:----4-----4-----7-----7--------5-----------6----|
g:-1----------/4--------------4-----4-----6-----6-|
d:-------------------------2----------/4----------|
a:------------------------------------------------|
E:------------------------------------------------|
[ Tab from: http://www.guitartabs.cc/tabs/s/scorpions/well_burn_the_sky_tab.html ]
Repeat RHYTHM 1 10 times for the intro. Then repeat RHYTHM 1 about 9 or 10 more
times, and then add:

FILL 1 
e:-------4-----------7---------------------|
b:----4-----4-----7-----7--------5-----6---|
g:-1----------/4--------------4-----4--6---|
d:-------------------------2----------/4---|
a:-----------------------------------------|
E:-----------------------------------------|

RHYTHM 2 
e:--------------------------------------------|
b:--------------------------------------------|
g:--------------------------------------------|
d:-6--x-6-6--x-6--x/7-6--6-6-4----4-4-x-x-4-4-|
a:-6--x-6-6--x-6--x/7-6--6-6-4----4-4-x-x-4-4-|
E:-4--x-4-4--x-4--x/5-4--4-4-2----2-2-x-x-2-2-|

Play RHYTHM 2 a total of three times and then play: 

RHYTHM 3
e:-----------------------|
b:-----------------------|
g:-----------------------|
d:-6--7-6-x6--7-6--6-6-4-|
a:-6--7-6-x6--7-6--6-6-4-|
E:-4--5-4-x4--5-4--4-4-2-|

Repeat RHYTHM 2 3 or 4 times during the chorus. 

Tabbed by Chad Armstrong.
Comments