Scorpions - Twentieth Century Man Chords & Tabs

 

Twentieth Century Man Chords & Tabs

Scorpions Chords & Tabs

Version: 1 Type: Tab 0 ratings
1 star 2 stars 3 stars 4 stars 5 stars
comments

Twentieth Century Man Tab

   
Band:  Scorpions
Album: Animal Magnetism
Song:  20th Century Man

Copyright (c)  (Harvest) (1980)
Version 1.0 - (05/08/05)

Transcribed By: Steve
Email:          stephen.elvidge1@ntlworld.com


.  - palm mute           /  - slide up to
\  - slide down to       ~  - vibrato
h  - hammer on           b  - Bend
p  - pull off            Suffixes for bend
t  - tap                 f  - full bend    h - half bend
ph - pinched harmonic    q  - quarter bend t - tap bend
*  - see comment         ^  - Hold bend    r release bend
x  - Stuccatto           ~  - vibrato bend
,  - slight palm mute    () - ghost note, sustained note
"  - tremolo note        <> - Trill

Tunning E A D G B E
 

 Intro

    h         hPM
E-----------------------|
B-----------------------|
G-7-9-9-9-9p7-9---9-7-7-|
D-7-9-9-9-9p7-9---9-7-7-|
A-7-7-7-7-7---7-----7-7-|
E---------------0-------| Rpt 4 X 

  Guitar 1 
     h             h
E[-------------------------|
B[-------------------------|
G[-5-7-7-7-7p5-5-5-7-7-5-5-|
D[-5-7-7-7-7p5-5-5-7-7-5-5-|
A[-5-5-5-5-5-----5---5-----|
E[-------------------------| 
 [Guitar 2
 [  ~~~~~~~~~~~~~
E[---------------10p8-10p8-|
B[-------------------------|
G[-------------------------|
D[-------------------------|
A[--/5-----(5)-------------|
E[-------------------------|Rpt 2 X

  Guitar 1
     h         h PM
E[-----------------------|
B[-----------------------|
G[-7-9-9-9-9p7-9---9-7-7-|
D[-7-9-9-9-9p7-9---9-7-7-|
A[-7-7-7-7-7---7-----7-7-|
E[---------------0-------| 
 [Guitar 2
 [   ~~~~~~~~~~~~~~~~~~~
E[-----------------------|
B[-----------------------|
G[-----------------------|
D[-----------------------|
A[--/7--------(7)--------|
E[-----------------------| Rpt 2 X

 Verse

  Guitar 1
     h         h PM
E[-----------------------|
B[-----------------------|
G[-7-9-9-9-9p7-9---9-7-7-|
D[-7-9-9-9-9p7-9---9-7-7-|
A[-7-7-7-7-7---7-----7-7-|
E[---------------0-------| 
 [Guitar 2
 [   ~~~~~~~~~~~~~~~~~~~
E[-----------------------|
B[-----------------------|
G[-----9------7----------|
D[-7/9----7/9------9-----|
A[-----------------------|
E[-----------------------| Rpt 3 X

  Guitar 1
     h         h PM
E[-----------------------|
B[-----------------------|
G[-7-9-9-9-9p7-9---9-7-7-|
D[-7-9-9-9-9p7-9---9-7-7-|
A[-7-7-7-7-7---7-----7-7-|
E[---------------0-------| 
 [Guitar 2
 [   ~~~~~~~~~~~~~~~~~~~
E[-----------------------|
B[-----------------------|
G[-----9------7----------|
D[-7/9----7/9------9-----|
A[-------------------10--|
E[-----------------------|

  Guitar 1 
     h             h
E[-------------------------|
B[-------------------------|
G[-5-7-7-7-7p5-5-5-7-7-5-5-|
D[-5-7-7-7-7p5-5-5-7-7-5-5-|
A[-5-5-5-5-5-----5---5-----|
E[-------------------------| 
 [Guitar 2
 [  
E[-------------------------|
B[-------------------------|
G[-------------------------|
D[--/7--------(7)----------|
A[--/5--------(5)----------|
E[-------------------------|Rpt 2 X

 Rpt above

  Guitar 1
     h         h PM
E[-----------------------|
B[-----------------------|
G[-7-9-9-9-9p7-9---9-7-7-|
D[-7-9-9-9-9p7-9---9-7-7-|
A[-7-7-7-7-7---7-----7-7-|
E[---------------0-------| 
 [Guitar 2
 [   ~~~~~~~~~~~~~~~~~~~
E[-----------------------|
B[-----------------------|
G[-----9------7----------|
D[-7/9----7/9------9-----|
A[-----------------------|
E[-----------------------|

  Guitar 1
     h         h PM
E[-----------------------|
B[-----------------------|
G[-7-9-9-9-9p7-9---9-7-7-|
D[-7-9-9-9-9p7-9---9-7-7-|
A[-7-7-7-7-7---7-----7-7-|
E[---------------0-------| 
 [Guitar 2
 [   ~~~~~~~~~~~~~~~~~~~
E[-----------------------|
B[-----------------------|
G[-----9------7----------|
D[-7/9----7/9------9-----|
A[-------------------10--|
E[-----------------------|

 Chorus


  Guitar 1
                h       h    h
E[-----------------------------------|
B[-----------------------------------|
G[-12----\7---7-9---9-7-9-7--9-9-----|
D[-12----\7---7-9---9-7-9-7--9-9-----|
A[-10----\5-----7-x-7-----7----7-xx--|
E[-----------------------------------|
 [Guitar 2
E[-----------------------------------|
B[-----------------------------------|
G[-12----\7----/9---9-----9----9-----|
D[-12----\7----/9---9-----9----9-----|
A[-10----\5----/7-x-7-x-x-7-xx-7-xx--|
E[-----------------------------------| 
 [Guitar 3
E[-----------------------------------|
B[-8-10brp8-10-----------------------|
G[-----------------------------------|
D[-----------------------------------|
A[-----------------------------------|
E[-----------------------------------| Rpt
[ Tab from: http://www.guitartabs.cc/tabs/s/scorpions/twentieth_century_man_tab.html ]
  Guitar 1
                 h       h    h
E[------------------------------------|
B[------------------------------------|
G[-12----\7----7-9---9-7-9-7--9-9-----|
D[-12----\7----7-9---9-7-9-7--9-9-----|
A[-10----\5------7-x-7-----7----7-xx--|
E[------------------------------------|
 [Guitar 2
 [        [-PM-]
E[------------2-----------------------|
B[----------3--3----------------------|
G[-12------2-2--/9---9-----9----9-----|
D[-12-----0-----/9---9-----9----9-----|
A[-10-----------/7-x-7-x-x-7-xx-7-xx--|
E[------------------------------------| 
 [Guitar 3
E[------------------------------------|
B[-8-10brp8-10------------------------|
G[------------------------------------|
D[------------------------------------|
A[------------------------------------|
E[------------------------------------|


  Guitar 1
                h       
E[-----------------------------------|
B[-----------------------------------|
G[-12----\7---7-9---9----------------|
D[-12----\7---7-9---9----------------|
A[-10----\5-----7-x-7----------------|
E[-----------------------------------|
 [Guitar 2
E[-----------------------------------|
B[-----------------------------------|
G[-12----\7----/9---9----------------|
D[-12----\7----/9---9----------------|
A[-10----\5----/7-x-7----------------|
E[-----------------------------------| 
 [Guitar 3
E[-------------10--------------------|
B[-8-10brp8-10-----------------------|
G[-----------------------------------|
D[-----------------------------------|
A[-----------------------------------|
E[-----------------------------------| 

 Rpt Verse

 Main Riff Varient appears 2nd time
    h         h PM
E-----------------------|
B-----------------------|
G-7-9-9-9-9p7-9---9-8-8-|
D-7-9-9-9-9p7-9---9-7-7-|
A-7-7-7-7-7---7-----7-7-|
E---------------0-------| Rpt

 Varient enters 6th time

  Guitar 1 
     h             h
E[-------------------------|
B[-------------------------|
G[-5-7-7-7-7p5-5-5-7-7-5-5-|
D[-5-7-7-7-7p5-5-5-7-7-5-5-|
A[-5-5-5-5-5-----5---5-----|
E[-------------------------| 
 [Guitar 2
 [  ~~~~~~~~~~~~~
E[---------------10p8-10p8-|
B[-------------------------|
G[-------------------------|
D[-------------------------|
A[--/5-----(5)-------------|
E[-------------------------|

 Rpt Chorus

 Guitar solo

  E
    ~~~~~~~~        ~~~~     ~~~~~~~~~     ~~~
E------------------17fb-15----------------------------------|
B-15fb----15r15-12----------15fb----15r15-12----------------|
G---------------------------------------------14br14p12-----|
D-------------------------------------------------------14--|
A-----------------------------------------------------------|
E-----------------------------------------------------------|

    ~~~~~~~~        ~~~~          ~~~~~~~~~~~~~~~~~~~~~~~~~                   
E------------------17fb-15-----12---------------------------|
B-15fb----15r15-12----------15b---15b15p12-15p12------------|
G------------------------------------------------14-14-12---|
D-----------------------------------------------------------|
A-----------------------------------------------------------|
E-----------------------------------------------------------|

E-----------|
B-----------|
G-----------|
D-9-8\7-7\5-|
A-----------|
E-----------|

  D
  ~~~~~~              ~~~  ~~~~                     ~~~
E-------------------------15fbr15-14-15-17-15-14--------|
B-8b-8br8-7-8-10-8-7/14b-------------------------15-----|
G---------------------------------------------------14--|
D-------------------------------------------------------|
A-------------------------------------------------------|
E-------------------------------------------------------|

  E
   ~~~~~~~~~~~~~~~~~~              ~~~~    h      h   
E------------------------12-------------15-19p15-17p15\14-|
B-12-121212-12-121212-12----15p12-15b---------------------|
G-14b141414-14b141414-------------------------------------|
D---------------------------------------------------------|
A---------------------------------------------------------|
E---------------------------------------------------------|

     h      h                ~~
E-15-19p15-17p15\14-15p14-12--------------|
B----------------------------15b----------|
G-------------------------------14-12-----|
D-------------------------------------14\-|
A-----------------------------------------|
E-----------------------------------------|

 Rpt Chorus

  Guitar 1
                h           
E[-----------------------------------|
B[-----------------------------------|
G[-12----\7---7-9---9---------9------|
D[-12----\7---7-9---9-----7/9--9-5---|
A[-10----\5-----7-x-7--------------7\|
E[-----------------------------------|
 [Guitar 2
E[-----------------------------------|
B[-----------------------------------|
G[-12----\7----/9---9-----9----9-----|
D[-12----\7----/9---9-----9----9-----|
A[-10----\5----/7-x-7-x-x-7-xx-7-xx--|
E[-----------------------------------| 
 [Guitar 3
E[-----------------------------------|
B[-8-10brp8-10-----------------------|
G[-----------------------------------|
D[-----------------------------------|
A[-----------------------------------|
E[-----------------------------------| Rpt 6 X

  Guitar 1
                h       
E[-----------------------------------|
B[-----------------------------------|
G[-12----\7---7-9--9--9--------------|
D[-12----\7---7-9--9--9--------------|
A[-10----\5-----7--7--7--------------|
E[-----------------------------------|
 [Guitar 2
E[-----------------------------------|
B[-----------------------------------|
G[-12----\7----/9--9--9--------------|
D[-12----\7----/9--9--9--------------|
A[-10----\5----/7--7--7--------------|
E[-----------------------------------| 
 [Guitar 3
E[-------------10--------------------|
B[-8-10brp8-10-----------------------|
G[-----------------------------------|
D[-----------------------------------|
A[-----------------------------------|
E[-----------------------------------|



END
Comments