Scorpions - Too Far Chords & Tabs

 

Too Far Chords & Tabs

Scorpions Chords & Tabs

Version: 1 Type: Tab 0 ratings
1 star 2 stars 3 stars 4 stars 5 stars
comments

Too Far Tab

#----------------------------------PLEASE NOTE---------------------------------#
#This file is the author's own work and represents their interpretation of the #
#song. You may only use this file for private study, scholarship, or research. #
#------------------------------------------------------------------------------#

Scorpions - Too Far

Date   : 30th,August,2004
Song   : Too Far
Artist : Scorpions (Bouns Track)
Album  : Unbreakable
I am   : Mohamed Hassan ...20 years old ...Egyptian

Hi all,back with another tone from scorpions,this I thikn a Bonus track in "Unbreakable"
it's a short but sweet tone,mostly acoustic,with no solo,but still awesome as usual,don't about
you guys but I love them when they unplug

figure out the strumming cause I don't know how to explain it

Intro Riff :

----------4--4---2----------------------
-----4-------4---2---2--4---4-4-4-4-----
---4-----------------1--4h6-4-4-4-4----- you can lose
---------------------------------------- some of the base notes
-------6-------------------------------- if it bothers you,
-4-------------4---2-0------4-4-4-4----- that's what I do
[ Tab from: http://www.guitartabs.cc/tabs/s/scorpions/too_far_tab.html ]
-------4---4----2-----------------------
-----4-----4----2----2---0--4-----------
---4-----------------1---1--4-----------
----------------------------------------
----------------------------------------
-4-----------4----2--0------4-----------

----------4--4---2----------------------
-----4-------4---2---2--4---4-4-4-4-----
---4-----------------1--4h6-4-4-4-4-----
----------------------------------------
-------6--------------------------------
-4-------------4---2-0------4-4-4-4-----

----2-2--x-x--4-4---------
----4-4--5-5--4-4---------
----4-4--6-6--4-4---------
----4-4--6-6--6-6---------
--2---2--4-4--6-6---------
--------------4-4---------

Verse :

-------------------------------------------------
----4----------------------------4---------------
------4--------6--------4----------6-------------
--------6--------6--------6----------6-----------
------------4------4--4-----4--6-----------------
--4---------------------------------------------'

-------------------4-4-------------------------
----5----------5-7-4-4-------------------------
------4------6-----4-4-------------------------
--------6--4-------6-6---------2s4-------------
--9----------------6-6-----4h6-----------------
-------------------4-4-4h7---------------------




That's it,there's some guitar licks but they are so easy so I won't add them,have fun
keep it rockin'
contact me : metia_kickass@hotmail.com
Comments