Scorpions - The Zoo Chords & Tabs

 

The Zoo Chords & Tabs

Scorpions Chords & Tabs

Version: 5 Type: Tab 0 ratings
1 star 2 stars 3 stars 4 stars 5 stars
comments

The Zoo Tab

   
Band:  The Scorpions
Album: Animal Magnetism
Song:  Zoo

Copyright (c)  (Harvest) (1980)
Version 1.0 - (30/06/05)

Transcribed By: Steve
Email:          stephen.elvidge1@ntlworld.com


.  - palm mute           /  - slide up to
\  - slide down to       ~  - vibrato
h  - hammer on           b  - Bend
p  - pull off            Suffixes for bend
t  - tap                 f  - full bend    h - half bend
ph - pinched harmonic    q  - quarter bend t - tap bend
*  - see comment         ^  - Hold bend    r release bend
x  - Stuccatto           ~  - vibrato bend
,  - slight palm mute    () - ghost note, sustained note
"  - tremolo note        <> - Trill

Tunning E A D G B E
 

 Intro


E---------------------------------------------------------------|
B---------------------------------------------------------------|
G-9-9-9-9-9-9-9-9\7/9\5\4/5/9\7--/9-9-9-9-9-9-9-9\7/9\5\4/5/7---|
D-9-9-9-9-9-9-9-9\7/9\5\4/5/9\7--/9-9-9-9-9-9-9-9\7/9\5\4/5/7---|
A-7-7-7-7-7-7-7-7\5/7\3\2/3/7\5--/7-7-7-7-7-7-7-7\5/7\3\2/3/5---|
E---------------------------------------------------------------| Rpt
 Additional intro guitar enters 2nd time
                             Pick scrape                  Pick scrape
E---------------------------------------------------------------|
B---------------------------------------------------------------|
G-9-9-9-9-9-9-9-9\7/9\5\4/5/9\7\--9-9-9-9-9-9-9-9\7/9\5\4/5/7-\-|
D-9-9-9-9-9-9-9-9\7/9\5\4/5/9\7\\-9-9-9-9-9-9-9-9\7/9\5\4/5/7\-\|
A-7-7-7-7-7-7-7-7\5/7\3\2/3/7\5-\-7-7-7-7-7-7-7-7\5/7\3\2/3/5-\-|
E---------------------------------------------------------------|

  Guitar 1
  [---------------PM------------------]
E[--------------------------------------|
B[--------------------------------------|
G[--------------------------------------|
D[--------------------------------------|
A[--------------------------------------|
E[-0-000--0-000-0-000-0-000-0-000-0-000-|
 [
 [Guitar 1
E[--------------------------------------|
B[--------------------------------------|
G[--------------------------------------|
D[--------------------------------------|
A[-2----------------------(2)-----------|
E[-0----------------------(0)-----------|

 Main Riff

  [--PM--]     [--PM--]     [--PM--]    PM
E---------------------------------------------------|
B---------------------------------------------------|
G---------------------------------------------------|
D----------7\5----------7\5----------7\5---4-5-4-5--|
A----------9\7----------9\7----------9\7---5-7-5-7--|
E-0-000-00-----0-000-00-----0-000-00-----0----------| Rpt 4 X

 Guitar 2 enters 2nd time
E---------------------------------------------------|
B---------10\8---------10\8---------10\8---7-5-7-8--|
G---------11\9---------11\9---------11\9---7-5-7-9--|
D---------------------------------------------------|
A---------------------------------------------------|
E---------------------------------------------------|
[ Tab from: http://www.guitartabs.cc/tabs/s/scorpions/the_zoo_tab_ver_5.html ]
E----------------------------------------------------------|
B---------10\8---------10\8---------10\8---7-5-7-8--(8)----|
G---------11\9---------11\9---------11\9---7-5-7-9--(9)----|
D----------------------------------------------------------|
A----------------------------------------------------------|
E----------------------------------------------------------|

 Verse

 [---------------PM------------------]
E--------------------------------------|
B--------------------------------------|
G--------------------------------------|
D--------------------------------------|
A--------------------------------------|
E-0-000--0-000-0-000-0-000-0-000-0-000-| Rpt

 [----------PM------------]
E--------------------------|
B--------------------------|
G--------------------------|
D--------------------------|
A--------------3-333-3-333-|
E-0-000--0-000-------------|

 Rpt Main Riff 2 X

 Rpt Verse

 [----PM------]
E--------------|
B--------------|
G--------------|
D--------------|
A--------------|
E-0-000--0-000-|

 Chorus


E---------------------------------------------|
B---------------------------------------------|
G-12----12---\7----7---/9----9---\5----5--5-/-|
D-12----12---\7----7---/9----9---\5----5--5-/-|
A-10----10---\5----5---/7----7---\3----3--3-/-|
E---------------------------------------------|

E----------------------------------------|
B----------------------------------------|
G-12----12---\7----7---/9--9-99-99-9-999-|
D-12----12---\7----7---/9--9-99-99-9-999-|
A-10----10---\5----5---/7--7-77-77-7-777-|
E----------------------------------------|

E----------------------------0-----------0----|
B----------------------------0------------0---|
G-12----12---\7----7---/9--------\5---(5)---/-|
D-12----12---\7----7---/9--------\5---(5)---/-|
A-10----10---\5----5---/7--------\3---(3)---/-|
E---------------------------------------------|

E------------------------------------|
B-----------------0------------------|
G-4---------4/7---7----/9----(9)-----|
D-4---------4/7--------/9----(9)-----|
A-2---------2/5--------/7----(7)-----|
E------------------------------------|

E----------------------------0-----------0----|
B----------------------------0------------0---|
G-12----12---\7----7---/9--------\5---(5)---/-|
D-12----12---\7----7---/9--------\5---(5)---/-|
A-10----10---\5----5---/7--------\3---(3)---/-|
E---------------------------------------------|

E--------------------------------------|
B--------------------------------------|
G-12----12---\7----7---/9-\--99-99-999-|
D-12----12---\7----7---/9-\--99-99-999-|
A-10----10---\5----5---/7-\--77-77-777-|
E--------------------------------------|

E----------------------------0-----------0----|
B----------------------------0------------0---|
G-12----12---\7----7---/9--------\5---(5)---/-|
D-12----12---\7----7---/9--------\5---(5)---/-|
A-10----10---\5----5---/7--------\3---(3)---/-|
E---------------------------------------------|

E------------------------------------|
B-----------------0------------------|
G-4---------4/7---7----/9----(9)-----|
D-4---------4/7--------/9----(9)-----|
A-2---------2/5--------/7----(7)-----|
E-----------------------0----(0)-----|

                         ~~~~~~~~~~
E------------------------------------|
B------------------------------------|
G------------------------------------|
D-2-2-2-2-2-2-2-2-2-2-2--------------|
A-0-0-0-0-0-0-0-0-0-0-0-3----(3)-----|
E------------------------------------| Rpt 4 X

 Rpt Main Riff 4 X

 Rpt Short Verse

 Rpt Chorus

 Rpt Main Riff to fade



END
Comments