Scorpions - The Zoo Chords & Tabs

 

The Zoo Chords & Tabs

Scorpions Chords & Tabs

Version: 2 Type: Bass Tab 0 ratings
1 star 2 stars 3 stars 4 stars 5 stars
comments

The Zoo Bass Tab

-----------------------------------------------------------------
The Zoo - The Scorpions
-----------------------------------------------------------------
Tabbed by: Alex
Email: laughing_hippie@yahoo.com
[ Tab from: http://www.guitartabs.cc/tabs/s/scorpions/the_zoo_btab_ver_2.html ]
Tuning: Standard
Intro:
G|---------------------------------------------------------------|
D|---------------------------------------------------------------|
A|---------------------------------------------------------------|
E|--0-0-0-0------------------------------------------------------|
At 1:16:
G|---------------------------------------------------------------|
D|---------------------------------------------------------------|
A|3-3-3-3---------3-3-3-3---------3-3-3-3---------3-3-3-3--------|
E|--------0-0-0-0---------0-0-0-0---------0-0-0-0---------0-0-0-0|
At 1:58:
G|---------------------------------------------------------------|
D|--5-5-5-5------------------------------------------------------|
A|----------5-5-5-5-7-7-7-7-3-3-3-3---------5-5-5-5--------------|
E|----------------------------------3-3-3-3---------7-7-7-7------|

G|---------------------------------------------------------------|
D|-----------5-5-5-5---------------------------------------------|
A|---------------------------------------------------------------|
E|--0-0-0-0------------------------------------------------------|

G|---------------------------------------------------------------|
D|---------------------------------------------------------------|
A|--5-5-5-5-7-7-7-7-3-3-3-3-2-2-2-2-5-5-5-5-7-7-7-7--------------|
E|---------------------------------------------------0-0-0-0-----|
At 2:34:
G|---------------------------------------------------------------|
D|---------------------------------------------------------------|
A|--0-0-0-0-3-0-0-0-0-3-0-0-0-0-3-0-0-0-0-3----------------------|
E|---------------------------------------------------------------|
Comments