Scorpions - Still Loving You Chords & Tabs

 

Still Loving You Chords & Tabs

Scorpions Chords & Tabs

Version: 4 Type: Tab 0 ratings
1 star 2 stars 3 stars 4 stars 5 stars
comments

Still Loving You Tab

   
PROPS GO TO: Albatros

STILL LOVING YOU - SCORPIONS
----------------------------
played by Mathias Jabs in "Love at first sting"
tabbed by Albatros (otarie68@katamail.com) 


[INTRO](X2)
                     
e|---7--------7---------7------10\9-7--------7------------6-------------|
b|-----9--------9---------9-----------9---9----9-------8-----8----------|
g|-------8--------8---------8-------------8------8-----6-------6--------|
d|----------------------------------------9--------9---8---------8------|
a|-6---------9--------7-------------------7------------6----------------|
E|----------------------------------------------------------------------|
 
e|---7--------7---------7------10\9-7--------7------------6-------------|
b|-----9--------9---------9-----------9---9----9-------8-----8----------|
g|-------8--------8---------8-------------8------8-----6-------6--------|
d|----------------------------------------9--------9---8----------------|
a|-6---------9--------7-------------------7------------6----------------|
E|----------------------------------------------------------------------|
 
               
[Part1]

  Abm
e|---7-----7-----7--|---7-----7-----7-|---7-----7-----7-|---7-----7------7---|
b|-----9-----9------|-----9-----9-----|-----9-----9-----|-----9-----9--------|
g|-------8-----8----|-------8-----8---|-------8-----8---|-------8-----8------|
d|------------------|-----------------|-----------------|--------------------|
a|-6----------------|-6---------------|-6---------------|-6------------------|
E|------------------|-----------------|-----------------|--------------------|
  Time     it needs  time         to win back your love again  I will be 
  Love     only      love         can bring back your love someday I will be
                                                                              
  Bb                                           Eb                                     
e|---10-----10-----10--|----10-----10-----10-|---4-----4-----4-|---4-----4-----4----|
b|------9------9-------|-------9------9------|-----3-----3-----|-----3-----3--------|
g|-10-----10-----10----|---------10-----10---|-------4-----4---|-------4-----4------|
d|---------------------|-12------------------|-1---------------|-1------------------|
a|---------------------|---------------------|-----------------|--------------------|
E|---------------------|---------------------|-----------------|--------------------|
  there                   I will be   there.


 [Solo 1] Play this section along with [Part1]


a|---------------------------------------------------------------------------|
b|---------------------------------------------------------------------------|
g|------3h4-6-----4p3h4---3-----3h4--3~----3--4--6--4--6b^^^^(8)-------------|
d|-4/6-----------------------6----------6----------------slowly--------------|
a|---------------------------------------------------------------------------|
E|---------------------------------------------------------------------------|
                                                                           
                                                                               
a|----------------------------------14-14b(16)--------------------------------|
b|-------11h12-14---12p11h12-----12--------------14b(16)r14-12-----14b^^^(16)-|
g|-11/13----------------------13-------------------------------13---slowly----|
d|----------------------------------------------------------------------------|
a|----------------------------------------------------------------------------|
E|----------------------------------------------------------------------------|

(The drums enter)  
Play this section along with [Part1]
                                                                           
    Abm                                                                   C#   
a|------------------|-----------------|-----------------|--------------------|
b|------------------|-----------------|-----------------|--------------------|
g|------------------|-------------4---|-----------------|-----------------6--|
d|-6--6----------6--|-6-------4h6-----|-6--6----------6-|-6---------------6--|
a|-6--6----------6--|-6---4h6---------|-6--6----------6-|-6---------------4--|
E|-4--4----------4--|-4---------------|-4--4----------4-|-4------------------|
  Fight Babe  I'll   fight         to win back your love again   I will be 
  Love        only   love         can break down the walls someday I will be
 
    Bb                                   Eb                                      
a|------------------|-----------------|-----------------|--------------------|
b|------------------|-----------------|-----------------|--------------------|
g|------------------|-----------------|-8--8----------8-|-8-------------8----|
d|-8--8-----------8-|-8-------------8-|-8--8----------8-|-8-------------8----|
a|-8--8-----------8-|-8-------------8-|-6--6----------6-|-6-------------6----|
E|-6--6-----------6-|-6-------------6-|-----------------|--------------------|
  there                    I will be   there
 

[REFRAIN]
 
Abm      E        B                F#
If we'd go again, all the way from start,
Abm      E                B                     F#
I would try to change, the things that killed our love.
Abm             C#m               Eb                       G#
Your pride has built a wall, so strong that I can't get through.
         E          [lick A]  F#
Is there really no chance to start once again.
           
I'm loving you.

     Abm  
e|---7--------7---------7------10\9-7--------7------------6--------------------|
b|-----9--------9---------9-----------9---9----9-------8-----8-----------------|
g|-------8--------8---------8-------------8------8-----6-------6---------------|
d|----------------------------------------9--------9---8---------8-------------|
a|-6---------9--------7-------------------7------------6-----------------------|
E|-----------------------------------------------------------------------------|
 
then once again, along with [Part1]

e|----------------------------------14-14b(16)----------------------------------|
b|-------11h12-14---12p11h12-----12--------------14b(16)r14-12-----14b^^^^(16)--|
g|-11/13----------------------13--------------------------------13---slowly-----|
d|------------------------------------------------------------------------------|
a|------------------------------------------------------------------------------|
E|------------------------------------------------------------------------------|


Abm 
Try, baby try to trust in my love again.
          Bb                Eb
I will be there, I will be there.
Abm
Love our love, Just shouldn't be thrown away
          Bb                Eb
I will be there, I will be there.


[ Tab from: http://www.guitartabs.cc/tabs/s/scorpions/still_loving_you_tab_ver_4.html ]
[REFRAIN] (X2)
 
Abm      E        B                     F# [lick B]
If we'd go again, all the way from the start,
Abm      E                 B                     F# [lick C]
I would try to change, the things that killed our love.
 
Abm F# Abm          C#m              [Lick D]        Eb   C#  Eb
          Yes, I've hurt your pride, and I know
                      Abm
What you've been through
           E [lick E]
You should give me a chance
      F#
This can't be the end
                  Abm  E  B   F# [Lick F]
I'm still loving you 
                  Abm  E  B   F# [Lick G]
I'm still loving you 
                  Abm  E  B                                F#
I'm still loving you                                 I need your love
e|---------------------------------12/14-12--14b(16)--14--14b(16)--14--------|
b|------------------------------12-------------------------------------------|
g|----------------------13--15-----------------------------------------------|
d|---------------------------------------------------------------------------|
a|---------------------------------------------------------------------------|
E|---------------------------------------------------------------------------|

                                                  Abm  E  B
                     I'  m    still   loving    you    
e|---21b(23)r21--19--21b(23)r21--19--21b(23)---------------------------------|
b|---------------------------------------------------------------------------|
g|---------------------------------------------------------------------------|
d|---------------------------------------------------------------------------|
a|---------------------------------------------------------------------------|
E|---------------------------------------------------------------------------|
                                                     
                                                     Still loving you baby...
e|------16--18--19p18-19p18---------------16--18--19p18--19p18---------------|
b|---16---------------------19b(21)----16-----------------------19--16-------|
g|---------------------------------------------------------------------------|
d|---------------------------------------------------------------------------|
a|---------------------------------------------------------------------------|
E|---------------------------------------------------------------------------|


[Solo 2]
                 
e|-----|-------------|-----------------|-------------|-----------------------|
b|--19-|-19p16p14h16-|--19--19--19--19-|-19p16p14h16-|-19p16--19b(21)--------|
g|-----|-------------|-----------------|-------------|---------slow----------|
d|-----|-------------|-----------------|-------------|-----------------------|
a|-----|-------------|-----------------|-------------|-----------------------|
e|-----|-------------|-----------------|-------------|-----------------------|
           5X                              3X

   
e|---21b(23)-----------------------------------------------------------------|
b|-------------16--17--19--17p16------16--17--16-----------------------------|
g|--------------------------------18--------------18b(20)----18p16p13h16-----|
g|---------------------------------------------------------------------------|
a|---------------------------------------------------------------------------|
E|---------------------------------------------------------------------------|

e|-----------------------------------14--------------------------------------|
b|---------------------------14b(16)------14b(16)----------------------------|
g|--18p16p13h16---18p16p13--------------------------4--6--6--6--6--6p4---4---|
d|---------------------------------------------------------------------6-----|
a|---------------------------------------------------------------------------|
E|---------------------------------------------------------------------------|

e|---------------------------------------------------------------------------|
b|---------------------------------------------------------------------------|
g|-----------------/---------------------------------------------------------|
d|---6p4----------/----------------------------------------------------------|
a|---------------/-----------------------------------------------------------|
E|--------7----4/------------------------------------------------------------|

Then the singer keeps on singing The last verse of the refrain while the guitar
plays this little lead part and this until the end of the song, so he actually 
plays it three times


e|---13b(15)------------12/14-12--14b(16)--14--14b(16)--14~------------------|
b|------------------12--------------------------------------14--12--11-------|
g|-----------13--15----------------------------------------------------13----|
d|---------------------------------------------------------------------------|
a|---------------------------------------------------------------------------|
E|---------------------------------------------------------------------------|

e|--------------------------11h12p11~--12--11--11h12p11--11h12p11------------|
b|---------------------------------------------------------------------------|
g|---12--13--13/15--13~------------------------------------------------------|
d|---------------------------------------------------------------------------|
a|---------------------------------------------------------------------------|
E|---------------------------------------------------------------------------|


e|---11h12p11h12p11h12p11h12p11h12p11h12p11h12p11h12p11h12p11--14b(16)--------|
b|----------------------------------------------------------------------------|
g|----------------------------------------------------------------------------|
d|----------------------------------------------------------------------------|
a|----------------------------------------------------------------------------|
E|----------------------------------------------------------------------------|
                                                           


[Lick A]
e|---------------------------------------------------------------------------|
b|---------------------------------------------------------------------------|
g|---------------------------------------------------------------------------|
d|---------------------------------------------------------------------------|
a|--6--7--6--7--6--7---------------------------------------------------------|
E|---------------------------------------------------------------------------|
 
 [Lick B]
e|---------------------------------------------------------------------------|
b|---------------------------------------------------------------------------|
g|---------------------------------------------------------------------------|
d|-----------------4---------------------------------------------------------|
a|---------2--4/6-----6~-----------------------------------------------------|
E|---2--4--------------------------------------------------------------------|

  [Lick C]
e|---------------------------------------------------------------------------|
b|---13b(15)--12h14p12--11~--------------------------------------------------|
g|---------------------------------------------------------------------------|
d|---------------------------------------------------------------------------|
a|---------------------------------------------------------------------------|
E|---------------------------------------------------------------------------|
 
  [Lick D]
e|------------20b(22)r20b(22)r20~--------------------------------------------|
b|---------------------------------------------------------------------------|
g|---------------------------------------------------------------------------|
d|---------------------------------------------------------------------------|
a|---------------------------------------------------------------------------|
E|---------------------------------------------------------------------------|



  [Lick E]                         hold bend
e|---------------------------------------------------------------------------|
b|----18b(20)--18b(20)--18--15------------18---------------------------------|
g|-----------------------------17-17b(19)----17b(20)r17----------------------|
d|---------------------------------------------------------------------------|
a|---------------------------------------------------------------------------|
E|---------------------------------------------------------------------------|


  [Lick F]
e|---16--18--19--21-21^23--21^23---21p19h21~---------------------------------|
b|---------------------------------------------------------------------------|
g|---------------------------------------------------------------------------|
d|---------------------------------------------------------------------------|
a|---------------------------------------------------------------------------|
E|---------------------------------------------------------------------------|
Comments