Scorpions - Still Loving You Chords & Tabs

 

Still Loving You Chords & Tabs

Scorpions Chords & Tabs

Version: 3 Type: Tab 0 ratings
1 star 2 stars 3 stars 4 stars 5 stars
comments

Still Loving You Tab

   
 Still Loving You


Solo Part 1:
|---------------------------------------------------------------------------|
|---------------------------------------------------------------------------|
|------2h3-5-----3p2h3--3p2h3--2------2--3--5--3--5--^^^^^^^^-7-------------|
|-3/5------------------------------5------------------slowly----------------|
|---------------------------------------------------------------------------|
|---------------------------------------------------------------------------|
                                                                           
                                                                               
|----------------------------------------10-13-13^15------------------------|
|-------10h11-13---11p10h11-----10-11-13-------------13^15v13-11-13^^^^15---|
|-10/12----------------------12------------------------------------slowly---|
|---------------------------------------------------------------------------|
|---------------------------------------------------------------------------|
|---------------------------------------------------------------------------|


Solo Part 2:
[ Tab from: http://www.guitartabs.cc/tabs/s/scorpions/still_loving_you_tab_ver_3.html ]
 [Lick A]
  Eb
|---------------------------------------------------------------------------|
|---------------------------------------------------------------------------|
|---------------------------------------------------------------------------|
|---------------------------------------------------------------------------|
|--6--8--6--8--6--8---------------------------------------------------------|
|---------------------------------------------------------------------------|
 
 [Lick B]
|---------------------------------------------------------------------------|
|-13^15--15v13-11--10--11---11-11--10~~~~~----------------------------------|
|---------------------------------------------------------------------------|
|---------------------------------------------------------------------------|
|---------------------------------------------------------------------------|
|---------------------------------------------------------------------------|
 
 [Lick C]
|---------------------------------------------------------------------------|
|-------------------10--11--10~~~~-13-11-13-11--13^15v13-11-13^15-13^15-----|
|-10/12~~~~--10-12----------------------------------------------------------|
|---------------------------------------------------------------------------|
|---------------------------------------------------------------------------|
|---------------------------------------------------------------------------|
Comments