Scorpions - Still Loving You Chords & Tabs

 

Still Loving You Chords & Tabs

Scorpions Chords & Tabs

Version: 1 Type: Tab 1 rating
1 star 2 stars 3 stars 4 stars 5 stars
comments

Still Loving You Tab

   
#----------------------------------PLEASE NOTE---------------------------------#
#This file is the author's own work and represents their interpretation of the #
#song. You may only use this file for private study, scholarship, or research. #
#------------------------------------------------------------------------------##
From: C.W.G.M.Enders@kub.nl  (ENDERS C.W.G.M.)
Subject: [TAB] STILL LOVING YOU - SCORPIONS

STILL LOVING YOU - SCORPIONS
 
[INTRO]
  Gm       Gm/F     Gm/Eb              ?            D7                       
|---6--------6--------6------9\8-6--------6------------5--------------------|
|-----8--------8--------8----------8---8----8-------7-----7-----------------|
|-------7--------7--------7------------7------7-----5-------5---------------|
|-0------------------------------------8--------8---7---------7-------------|
|----------8--------6------------------6------------5-----------------------|
|---------------------------------------------------------------------------|
 
  Gm       Gm/F     Gm/Eb              ?            D7                       
|---6--------6--------6------9\8-6--------6------------5--------------------|
|-----8--------8--------8----------8---8----8-------7-----7-----------------|
|-------7--------7--------7------------7------7-----5-------5---------------|
|-0------------------------------------8--------8---7-----------------------|
|----------8--------6------------------6------------5-----------------------|
|---------------------------------------------------------------------------|
 
                                                                               
  Gm                                                                         
|---6-----6-----6--|---6-----6-----6-|---6-----6-----6-|---6-----6------6---|
|-----8-----8------|-----7-----7-----|-----7-----7-----|-----7-----7--------|
|-------7-----7----|-------8-----8---|-------8-----8---|-------8-----8------|
|-0----------------|-0---------------|-0---------------|-0------------------|
|------------------|-----------------|-----------------|--------------------|
|------------------|-----------------|-----------------|--------------------|
                                                                    
  A                                    D                                     
|---9-----9-----9--|----9-----9----9-|---3-----3-----3-|---3-----3-----3----|
|-----8-----8------|------8-----8----|-----2-----2-----|-----2-----2--------|
|-9-----9-----9----|--------9-----9--|-------3-----3---|-------3-----3------|
|------------------|-11--------------|-0---------------|-0------------------|
|------------------|-----------------|-----------------|--------------------|
|------------------|-----------------|-----------------|--------------------|
  
 
  [Solo 1]
|---------------------------------------------------------------------------|
|---------------------------------------------------------------------------|
|------2h3-5-----3p2h3--3p2h3--2------2--3--5--3--5--^^^^^^^^-7-------------|
|-3/5------------------------------5------------------slowly----------------|
|---------------------------------------------------------------------------|
|---------------------------------------------------------------------------|
                                                                           
                                                                               
|----------------------------------------10-13-13^15------------------------|
|-------10h11-13---11p10h11-----10-11-13-------------13^15v13-11-13^^^^15---|
|-10/12----------------------12------------------------------------slowly---|
|---------------------------------------------------------------------------|
|---------------------------------------------------------------------------|
|---------------------------------------------------------------------------|
                                                                           
    Gm                                                                     C   
|------------------|-----------------|-----------------|--------------------|
|------------------|-----------------|-----------------|--------------------|
|------------------|-------------3---|-----------------|-----------------5--|
|-5--5----------5--|-5-------3h5-----|-5--5----------5-|-5---------------5--|
|-5--5----------5--|-5---3h5---------|-5--5----------5-|-5---------------3--|
|-3--3----------3--|-3---------------|-3--3----------3-|-3------------------|
  
    A                                    D                                      
|------------------|-----------------|-----------------|--------------------|
|------------------|-----------------|-----------------|--------------------|
|------------------|-----------------|-7--7----------7-|-7-------------7----|
|-7--7-----------7-|-7-------------7-|-7--7----------7-|-7-------------7----|
|-7--7-----------7-|-7-------------7-|-5--5----------5-|-5-------------5----|
|-5--5-----------5-|-5-------------5-|-----------------|--------------------|
  
 
 [Lick A]
  Eb
|---------------------------------------------------------------------------|
|---------------------------------------------------------------------------|
|---------------------------------------------------------------------------|
|---------------------------------------------------------------------------|
|--6--8--6--8--6--8---------------------------------------------------------|
|---------------------------------------------------------------------------|
 
 [Lick B]
|---------------------------------------------------------------------------|
|-13^15--15v13-11--10--11---11-11--10~~~~~----------------------------------|
|---------------------------------------------------------------------------|
|---------------------------------------------------------------------------|
|---------------------------------------------------------------------------|
|---------------------------------------------------------------------------|
 
 [Lick C]
|---------------------------------------------------------------------------|
|-------------------10--11--10~~~~-13-11-13-11--13^15v13-11-13^15-13^15-----|
|-10/12~~~~--10-12----------------------------------------------------------|
|---------------------------------------------------------------------------|
|---------------------------------------------------------------------------|
|---------------------------------------------------------------------------|
 
Please mail any updates to :
C.W.G.M.ENDERS@KUB.NL


From: masons@cadvision.com (Steve Mason)

SCORPIONS: STILL LOVING YOU
===========================

written by Rudolf Schenker and Klaus Meine
transcribed by Peter Bursch
tabbed by Harald Weidner


Used chords are:

Gm:                        or

|---|---|-1-|---|---|---     |---|---|---|---|---|-1-|---|---|---
|---|---|-1-|---|---|---     |---|---|---|---|---|---|---|-3-|---
|---|---|-1-|---|---|---     |---|---|---|---|---|---|-2-|---|---
|---|---|-1-|---|-4-|---     |---|---|---|---|---|---|---|---|---
|---|---|-1-|---|-3-|---     |---|---|---|---|---|---|---|---|--- x
|---|---|-1-|---|---|---     |---|---|---|---|---|---|---|---|--- x


A:                         or

|---|---|---|---             
|---|---|---|---|---|---|---|---|-1-|---|---|---
|---|-3-|---|---             
|---|---|---|---|---|---|---|---|-1-|-2-|---|---
|---|-2-|---|---             
|---|---|---|---|---|---|---|---|-1-|---|---|---
|---|-1-|---|---             
|---|---|---|---|---|---|---|---|---|---|-3-|---
|---|---|---|---             
|---|---|---|---|---|---|---|---|---|---|---|--- x
|---|---|---|--- x           
|---|---|---|---|---|---|---|---|---|---|---|--- x


D:

|---|-2-|---|---
|---|---|-3-|---
|---|-1-|---|---
|---|---|---|---
|---|---|---|--- x
|---|---|---|--- x


Eb:

|---|---|---|---|---|-1-|---|---|---
|---|---|---|---|---|-1-|---|-4-|---
|---|---|---|---|---|-1-|---|-3-|---
|---|---|---|---|---|-1-|---|-2-|---
|---|---|---|---|---|-1-|---|---|---
|---|---|---|---|---|-1-|---|---|---


B:

|-1-|---|---|---
|-1-|---|-4-|---
|-1-|---|-3-|---
|-1-|---|-2-|---
|-1-|---|---|---
|-1-|---|---|---


F:

|-1-|---|---|---
|-1-|---|---|---
|-1-|-2-|---|---
|-1-|---|-4-|---
|-1-|---|-3-|---
|-1-|---|---|---


Cm:
[ Tab from: http://www.guitartabs.cc/tabs/s/scorpions/still_loving_you_tab.html ]
|---|---|-1-|---|---|---
|---|---|-1-|-2-|---|---
|---|---|-1-|---|-4-|---
|---|---|-1-|---|-3-|---
|---|---|-1-|---|---|---
|---|---|-1-|---|---|---



The pickings are played with delay and chorus effects:

Matthias Jabs:
Gm
|---3-----3-----3-|---3-----3-----3-|---3-----3-----3-|---3-----3-----3-|
|-----3-----3-----|-----3-----3-----|-----3-----3-----|-----3-----3-----|
|-------3-----3---|-------3-----3---|-------3-----3---|-------3-----3---|
|-----------------|-----------------|-----------------|-----------------|
|-----------------|-----------------|-----------------|-----------------|
|-3---------------|-3---------------|-3---------------|-3---------------|

A                                   D
|---0-----0-----0-|---0-----0-----0-|---2-----2-----2-|---2-----2-----2-|
|-----2-----2-----|-----2-----2-----|-----3-----3-----|-----3-----3-----|
|-------2-----2---|-------2-----2---|-------2-----2---|-------2-----2---|
|-----------------|-----------------|-0---------------|-0---------------|
|-0---------------|-0---------------|-----------------|-----------------|
|-----------------|-----------------|-----------------|-----------------|

Gm
|---3-----3-----3-|---3-----3-----3-|---3-----3-----3-|---3-----3-----3-|
|-----3-----3-----|-----3-----3-----|-----3-----3-----|-----3-----3-----|
|-------3-----3---|-------3-----3---|-------3-----3---|-------3-----3---|
|-----------------|-----------------|-----------------|-----------------|
|-----------------|-----------------|-----------------|-----------------|
|-3---------------|-3---------------|-3---------------|-3---------------|

A                                   D
|---0-----0-----0-|---0-----0-----0-|---2-----2---2-3-|-2---------------|
|-----2-----2-----|-----2-----2-----|-----3-----3-----|-----------------|
|-------2-----2---|-------2-----2---|-------2---------|-----------------|
|-----------------|-----------------|-0---------------|-----------------|
|-0---------------|-0---------------|-----------------|-----------------|
|-----------------|-----------------|-----------------|-----------------|


Rudolf Schenker:
Gm
|---6-----6-----6-|---6-----6-----6-|---6-----6-----6-|---6-----6-----6-|
|-----8-----8-----|-----8-----8-----|-----8-----8-----|-----8-----8-----|
|-------7-----7---|-------7-----7---|-------7-----7---|-------7-----7---|
|-0---------------|-0---------------|-0---------------|-0---------------|
|-----------------|-----------------|-----------------|-----------------|
|-----------------|-----------------|-----------------|-----------------|

A                                   D
|---9-----9-----9-|---9-----9-----9-|---2-----2-----2-|---2-----2-----2-|
|----10----10-----|----10----10-----|-----3-----3-----|-----3-----3-----|
|-9-----9-----9---|-------9-----9---|-------2-----2---|-------2-----2---|
|-----------------|11---------------|-0---------------|-0---------------|
|-----------------|-----------------|-----------------|-----------------|
|-----------------|-----------------|-----------------|-----------------|

Gm
|---6-----6-----6-|---6-----6-----6-|---6-----6-----6-|---6-----6-----6-|
|-----8-----8-----|-----8-----8-----|-----8-----8-----|-----8-----8-----|
|-------7-----7---|-------7-----7---|-------7-----7---|-------7-----7---|
|-0---------------|-0---------------|-0---------------|-0---------------|
|-----------------|-----------------|-----------------|-----------------|
|-----------------|-----------------|-----------------|-----------------|

A                                   D
|---9-----9-----9-|---9-----9-----9-|---2-----2---2-3-|-2---------------|
|----10----10-----|----10----10-----|-----3-----3-----|-----------------|
|-9-----9-----9---|-------9-----9---|-------2---------|-----------------|
|-----------------|11---------------|-0---------------|-----------------|
|-----------------|-----------------|-----------------|-----------------|
|-----------------|-----------------|-----------------|-----------------|


(if you play it alone, play the Rudolf Schenker part)



The Refrain is played with very much distortion:

Both guitarists:
Gm                Eb                B                 F
|---------------3-|---------------6-|---------------1-|---------------1-|
|---------------3-|-8-------8-----8-|-3-------3-----3-|---------------1-|
|-3-------3-----3-|-8-------8-----8-|-3-------3-----3-|-2-------2-----2-|
|-5-------5-------|-8-------8-------|-3-------3-------|-3-------3-------|
|-5-------5-------|-6-------6-------|-1-------1-------|-3-------3-------|
|-3-------3-------|-----------------|-----------------|-1-------1-------|

Gm                Eb                B                 F
|---------------3-|---------------6-|---------------1-|---------------1-|
|---------------3-|-8-------8-----8-|-3-------3-----3-|---------------1-|
|-3-------3-----3-|-8-------8-----8-|-3-------3-----3-|-2-------2-----2-|
|-5-------5-------|-8-------8-------|-3-------3-------|-3-------3-------|
|-5-------5-------|-6-------6-------|-1-------1-------|-3-------3-------|
|-3-------3-------|-----------------|-----------------|-1-------1-------|

Gm                Cm                D                 Gm
|---------------3-|---------------3-|-2-------2-----2-|---------------3-|
|---------------3-|-4-------4-----4-|-3-------3-----3-|---------------3-|
|-3-------3-----3-|-5-------5-----5-|-2-------2-----2-|-3-------3-----3-|
|-5-------5-------|-5-------5-------|-0-------0-------|-5-------5-------|
|-5-------5-------|-3-------3-------|-----------------|-5-------5-------|
|-3-------3-------|-----------------|-----------------|-3-------3-------|

Eb                                  F
|---------------6-|---------------6-|---------------1-|---------------1-|
|-8-------8-----8-|-8-------8-----8-|---------------1-|---------------1-|
|-8-------8-----8-|-8-------8-----8-|-2-------2-----2-|-2-------2-----2-|
|-8-------8-------|-8-------8-------|-3-------3-------|-3-------3-------|
|-6-------6-------|-6-------6-------|-3-------3-------|-3-------3-------|
|-----------------|-----------------|-1-------1-------|-1-------1-------|



While Matthias Jabs plays the solo parts (does anyone have the TAB?),
Rudolf Schenker plays this:

Gm                                                    D7
|---6-------6-----|---6-----9-8-6---|-----6-----------|-----5-----------|
|-----8-------8---|-----8---------8-|-------8---------|-------7---------|
|-------7-------7-|-------7---------|---------7-------|---------5-------|
|-0---------------|-----------------|-8-----------8---|-7-----------7---|
|---------8-------|-6---------------|-6---------------|-5---------------|
|-----------------|-----------------|-----------------|-----------------|

Gm                                                    D7
|---6-------6-----|---6-----9-8-6---|-----6-----------|-----5-----------|
|-----8-------8---|-----8---------8-|-------8---------|-------7---------|
|-------7-------7-|-------7---------|---------7-------|---------5-------|
|-0---------------|-----------------|-8-----------8---|-7---------------|
|---------8-------|-6---------------|-6---------------|-5---------------|
|-----------------|-----------------|-----------------|-----------------|






From: ruzsb@westminster.ac.uk

STILL LVING YOU (SOLO)

By 
Scorpions
tab by Derek Boak


This is the solo for the scorpions still loving you.  I didn't bother trying to emphasis the timing, just listen to the song, it's easy enough.

Sorry if I've made any mistakes, but I didn't have the song with me while writing this.

/ means slide
b means bend
h means hammer-on

e:-------------------------------------------------------------------------|
B:-----------------------------------------------------------------------13|
G:-----------5----------------------------------5-----5b(7)/12--14---15----|
D:--/5--7--8-----8--7--8--7--5--7/8--7--5--7--8-----8----------------------|
A:-------------------------------------------------------------------------|
E:-------------------------------------------------------------------------|


e:---------------------13-15-----------------------------------------------|
B:----------------------------15--13h(15)13------13b(15)-------------------|
G:--15--14--15--12--15------------------------15---------------------------|
D:-------------------------------------------------------------------------|
A:-------------------------------------------------------------------------|
E:-------------------------------------------------------------------------|



Hope you enjoy it,


Derek Boak

ruzsb@westminster.ac.uk
100105.540@compuserve.com
Comments