Scorpions - Speedys Coming Chords & Tabs

 

Speedys Coming Chords & Tabs

Scorpions Chords & Tabs

Version: 2 Type: Tab 0 ratings
1 star 2 stars 3 stars 4 stars 5 stars
comments

Speedys Coming Tab

   
Band:  Scorpions
Album: Fly To The Rainbow
Song:  Speedy's Coming

Copyright (c)  (RCA) (1974)
Version 1.0 - (04/07/05)

Transcribed By: Steve
Email:          stephen.elvidge1@ntlworld.com



.  - palm mute           /  - slide up to
\  - slide down to       ~  - vibrato
h  - hammer on           b  - Bend
p  - pull off            Suffixes for bend
t  - tap                 f  - full bend    h - half bend
ph - pinched harmonic    q  - quarter bend t - tap bend
*  - see comment         ^  - Hold bend    r release bend
x  - Stuccatto           ~  - vibrato bend
,  - slight palm mute    () - ghost note, sustained note
"  - tremolo note        <> - Trill

Tunning Eb Ab Db Gb Bb Eb
 

 Intro

 Pick scrape/slow slide down
E----------------------------------|
B----------------------------------|
G----\-\-----8\--------------------|
D-----\-\----8\--------------------|
A----------------------------------|
E----------------------------------|

 Main Riff

E------------------------|
B-3-3--------------------|
G-2-2-2-2-4-4---4-4------|
D-0-0-2-2-4-4---4-4------|
A-----0-0-2-2-x-2-2-x-x--|
E------------------------| Rpt 4 X

 Rpt Main Riff 8 X for Verse

 Chorus

  Guitar 1
E[----------------------------|
B[----------------------------|
G[----------------------------|
D[----------------------------|
A[----------------------------|
E[-3-3/5-5-5/7-7-7-7-7-7-7-7--|
 [Guitar 2 
E[----------------------------|
B[----------------------------|
G[----------------------------|
D[-5-5/7-7-7/9-9-9-9-9-9-9-9--|
A[-5-5/7-7-7/9-9-9-9-9-9-9-9--|
E[-3-3/5-5-5/7-7-7-7-7-7-7-7--| 
[ Tab from: http://www.guitartabs.cc/tabs/s/scorpions/speedys_coming_tab_ver_2.html ]
  Guitar 1
E[----------------------------|
B[----------------------------|
G[----------------------------|
D[----------------------------|
A[-----5-5-4-2-2-2-2-2-2-2-2--|
E[-3-3------------------------|
 [Guitar 2 
E[----------------------------|
B[----------------------------|
G[----------------------------|
D[-5-5/7-7-7/9-9-9-9-9-9-9-9--|
A[-5-5/7-7-7/9-9-9-9-9-9-9-9--|
E[-3-3/5-5-5/7-7-7-7-7-7-7-7--|

  Guitar 1
E[----------------------------|
B[----------------------------|
G[----------------------------|
D[----------------------------|
A[----------------------------|
E[-3-3/5-5-5/7-7-7-7-7-7-7-7--|
 [Guitar 2 
E[----------------------------|
B[----------------------------|
G[----------------------------|
D[-5-5/7-7-7/9-9-9-9-9-9-9-9--|
A[-5-5/7-7-7/9-9-9-9-9-9-9-9--|
E[-3-3/5-5-5/7-7-7-7-7-7-7-7--|  

  Guitar 1
E[------------------------|
B[------------------------|
G[------------------------|
D[------------------------|
A[-----5-5-4-2--(2)-------|
E[-3-3--------------------|
 [Guitar 2
E[------------------------|
B[------------------------|
G[------------------------|
D[-5-5/7-7-7/9--(9)-------|
A[-5-5/7-7-7/9--(9)-------|
E[-3-3/5-5-5/7--(7)-------|

 Rpt Main Riff 4 X
 Rpt Verse and Chorus
 Rpt Main Riff 8 X for guitar solo
 Rpt Verse and Chorus

 With wah    trem dive             trem dive
E-------------------------------------------|
B-------------------------------------------|
G-------------------------------------------|
D----------------------------------0\-------|
A----------------------------5-5-4----------|
E-3-3/5-5-5/7\-----------3-3----------------|

 Rpt Chorus
 Rpt Chorus Riff 3 X for guitar solo backing.

                                            trem dive
E-------------------------------------------------------------------|
B-------------------------------------------------------------------|
G-------------------------------------------------------------------|
D-5-5/7-7-7/9-9-9-9-9-9-9-9-9-9-9-9-9-9-9-9-------------------------|
A-5-5/7-7-7/9-9-9-9-9-9-9-9-9-9-9-9-9-9-9-9-------------------------|
E-3-3/5-5-5/7-7-7-7-7-7-7-7-7-7-7-7-7-7-7-7-0\----------------------| 



END
Comments