Scorpions - Speedys Coming Chords & Tabs

 

Speedys Coming Chords & Tabs

Scorpions Chords & Tabs

Version: 1 Type: Tab 0 ratings
1 star 2 stars 3 stars 4 stars 5 stars
comments

Speedys Coming Tab

   
Subject: Speedy's Coming
Artist: Scorpions
From The Album : Fly To The Rainbow
Music: Rudolf Schenker, Lyrics:Klaus Meine


This Tab is donated by John-Paul Jalwan 
my e-mail: jp@cartage.org.lb
	   johnpauljalwan@hotmail.com
	   blackout@cyberia.net.lb
	
I got a website about scorpions: http://scorps.itgo.com

Enjoy!



Default Tuning


Intro:

C#, G#, Bb
     
Verse:

      C#5 G#5 Bb5
Gtr1|-----------------------|
    |-----------------------|
    |--6--------------------|
    |--6--6--8--8-----------|
    |--4--6--8--8-----------|
    |-----4--6--6-----------|

[ Tab from: http://www.guitartabs.cc/tabs/s/scorpions/speedys_coming_tab.html ]
Chorus:
     F#5 G#5 Bb5 
Gtr1|-----------------------|
    |-----------------------|
    |-----------------------|
    |-4--6--8---------------|
    |-4--6--8---------------|
    |-2--4--6---------------|
    Speedy's Coming...
  


Play Same Chords as in the intro and in the verses on guitar solos.



Ending: 


Gtr1|---------------------------------------------------|
    |-11-11-13-13-14b+v-----11-11-13-13-14b+v-----------|
    |---------------------------------------------------|
    |--------------------------------------------8\\\---|
    |--------------------------------------------8\\\---|
    |--------------------------------------------6\\\---|
						Tremolo bar
Comments