Scorpions - Someday Is Now Chords & Tabs

 

Someday Is Now Chords & Tabs

Scorpions Chords & Tabs

Version: 1 Type: Tab 0 ratings
1 star 2 stars 3 stars 4 stars 5 stars
comments

Someday Is Now Tab

SCORPIONS
Unbreakable
Someday is now  tab

Intro :

E------------------|---------------------------I
B------------------|---------------------------I
G-------------2----|------------2--------------I
D-2-222-2222--2--5-|-2-222-2222-2--5----3------I
A-3-333-3333--0--5-|-3-333-3333-0--5----3------I
E----------------3-|---------------3----1------I
	X3

Riff 1 :
I can feel I'm getting stronger... 
[ Tab from: http://www.guitartabs.cc/tabs/s/scorpions/someday_is_now_tab.html ]
E----------------|-------------------------------I
B--3-------------|--3----------------------------I
G--2---2---4-----|--2--2-------------------------I
D--0---2---4--5--|--0--2---4-2-4--2-4-2-4--2-4---I  X2
A------0---2--5--|-----0---2-0-2--0-2-0-2--0-2---I
E-------------3--|-------------------------------I

*répéter l'intro

*répéter riff 1 et...

Riff 2
No turning back, no more yesterdays...

E--------------|       E----------------------I
B--------------|       B----------------------I
G--------------|       G--555555555555555-----I
D--3--5--------| X3    D--555555555555555-----I
A--3--5--------|       A--333333333333333-----I
E--1--3--------|       E----------------------I

*Continuer pendant le solo.
Comments