Scorpions - She Said Chords & Tabs

 

She Said Chords & Tabs

Scorpions Chords & Tabs

Version: 1 Type: Tab 0 ratings
1 star 2 stars 3 stars 4 stars 5 stars
comments

She Said Tab

   
#----------------------------------PLEASE NOTE---------------------------------#
#This file is the author's own work and represents their interpretation of the #
#song. You may only use this file for private study, scholarship, or research. #
#------------------------------------------------------------------------------#

Date    : 12th,July,2004
Song    : She Said
Artist  : Scorpions
Album   : Unbreakable (Realeased 2004)
I am    : Mohamed Hassan ...20 years old ..Egyptian

This is one the best songs in my humble opinion in the new Scorpions album Unbreakable ,
it's an easy song but still very touching,these guys will never lose it,
these lyrics are my own interpetation
There's three guitars,2 electrics and one Acoustic..now let's rock on

Intro :

|-----------------------------------------------
|--------1--------1--------1---------1----------
|------0--------0--------0-------0h2------------
|----2--------2--------2-------2----------------
|--3--------2--------0-------2------------------
|-----------------------------------------------
|
|
|-----------------------------------------------
|--------13-12--12-10--10-8--10-8---------------
|---------------------------------10-9----------
|-----------------------------------------------
|-----------------------------------------------
|-----------------------------------------------


|---------------------------------------3-------
|-------1--------1--------1-------------0-------
|-----0--------0--------0---------------0-------
|---2--------2--------2-----------------0-------
|-3--------2--------0-------------------2-------
|---------------------------------------3-------
|
|                                      (lightly) 
|-----------------------------------------------
|------13-12--12-10-----------------------------
|-------------------10-9-7----7--------9s12-----
|--------------------------10---10-9-7----------
|-----------------------------------------------
|-----------------------------------------------


Now Another Acoustic Guitar enters,it does the strumming while guitar 1 (Electric) hit
the chord once,listen to the record for exact timing



Repeat Intro,then same chords for verses



Bridge :   

(This is the part I'm not sure of But I play like that and it works fine)

G            Dsus4
---------------3--3-----------
------3s5s3-----3--3----------
-----0-----------2--2---------
----0--------0----------------
---2--------------------------
--3---------------------------  play 3 times

      (Then pick up from the last G to the Solo Chords which are the same verse chords)

Solo :
[ Tab from: http://www.guitartabs.cc/tabs/s/scorpions/she_said_tab.html ]
--------15~-14-15-14hp15--12-15----------------------
---------------------------------15-17-15-17----------
-11h12---------------------------------------16-14-12--
-------------------------------------------------------
-------------------------------------------------------
-------------------------------------------------------

-----------------------------------------------
-----------------------------------------------
-------17-16----16----14-11s9s7----------------
-12h14-------16----16--------------------------
-----------------------------------------------
-----------------------------------------------

-----------------------------------------------
--------17-15-17----17-15-17-------------------
-14h16-----------16----------16--16s14s12------
-----------------------------------------------
-----------------------------------------------
-----------------------------------------------

Outro : 

Same as Intro but with minor variations in the solo

Ever Walk awayyyyyyyy
-----------------------------------------------
--13-12--12-10--10-8--10-8---------------------
---------------------------10-9----------------
--------------------------------10-------------
-----------------------------------------------
-----------------------------------------------

Don't Walk Awayyyyy
-----------------12-13p12-------12~------------
--13-12--12-10------------13-12----------------
-----------------------------------------------
-----------------------------------------------
-----------------------------------------------
-----------------------------------------------
No,no,no,no,no Don't Walk awayyy
-----------------------------------------------
-13-12--12-10------8---------------------------
---------------7h9---7-9-7---------------------
---------------------------7-9-7---------------
-----------------------------------------------
-----------------------------------------------
Always                  Someday
---------------------17~--8--------------------------
-13-12--12-10--13p12------8---14-12b14--14-12-14-12--
--------------------------9--------------------------
--------------------------10-------------------------
--------------------------10-------------------------
--------------------------8--------------------------

-----------------------------------------------------
-----------------------------------------------------
--7b(vibrato)-5-7-5----------------------------------
-----------------------------------------------------
---------------------5b(vibrato)--3-5-3--------------
-----------------------------------------------------

That would be it...Try it and give it the rate it's worth..I'll try to do more
songs from the new album..any comments send to  : metia_kickass@hotmail.com
Comments