Scorpions - Send Me An Angel Chords & Tabs

 

Send Me An Angel Chords & Tabs

Scorpions Chords & Tabs

Version: 2 Type: Tab 0 ratings
1 star 2 stars 3 stars 4 stars 5 stars
comments

Send Me An Angel Tab

   
#----------------------------------PLEASE NOTE---------------------------------#
#This file is the author's own work and represents their interpretation of the #
#song. You may only use this file for private study, scholarship, or research. #
#------------------------------------------------------------------------------#

Send Me An Angel
Performed by The Scorpions
Tabbed by Ango Frederiksen

This is my version of "Send Me An Angel"
Verse:
  Em     C        C?       B?
|----0------0---------------------|
|-----0------1------3--------3----|
|------0------0------0--------0---|
|--2------------------4--------4--|
|---------3-------5--------2------|
|---------------------------------|
  Em     C        C?
|----0------0---------------|
|-----0------1--------3-----|
|------0------0-----0---0---|
|--2---------------4-4-4-4--|
|---------3-------5---------|
|---------------------------|
[ Tab from: http://www.guitartabs.cc/tabs/s/scorpions/send_me_an_angel_tab_ver_2.html ]
Chorus:
|------------------------------------------------------|
|-----------9-----------8---------4--------------------|
|-----10--10-10------8-8-8-----5-5-5-------6-------8---|
|---10--10-----10---8-8---8---5-5---5-----6-6-----8-8--|
|--8---------------6---------3---------3/4-----4/6-----|
|------------------------------------------------------|

Solo:
|-------------------------------------------------------------|
|--11--12--14--12--11--9--11--12--11--15b16--15b16--15b16r15--|
|-------------------------------------------------------------|
|-------------------------------------------------------------|
|-------------------------------------------------------------|
|-------------------------------------------------------------|

|-------------------------------------------------|
|--12----------11--12--14--12--11--9--11--12--11--|
|------13-----------------------------------------|
|----------13-------------------------------------|
|-------------------------------------------------|
|-------------------------------------------------|

|--22b23--22b23--22b23r22--19--18--16--19--16--19--18--|
|------------------------------------------------------|
|------------------------------------------------------|
|------------------------------------------------------|
|------------------------------------------------------|
|------------------------------------------------------|
Comments